  0
SECTION
  2
HEADER
  9
$ACADVER
  1
AC1015
  9
$ACADMAINTVER
 70
     6
  9
$DWGCODEPAGE
  3
ANSI_1252
  9
$INSBASE
 10
0.0
 20
0.0
 30
0.0
  9
$EXTMIN
 10
0.0
 20
0.0
 30
0.0
  9
$EXTMAX
 10
431.8
 20
279.4
 30
0.0
  9
$LIMMIN
 10
0.0
 20
0.0
  9
$LIMMAX
 10
431.8
 20
279.4
  9
$ORTHOMODE
 70
     0
  9
$REGENMODE
 70
     1
  9
$FILLMODE
 70
     1
  9
$QTEXTMODE
 70
     0
  9
$MIRRTEXT
 70
     1
  9
$LTSCALE
 40
1.0
  9
$ATTMODE
 70
     1
  9
$TEXTSIZE
 40
4.9388888889
  9
$TRACEWID
 40
1.0
  9
$TEXTSTYLE
  7
Standard
  9
$CLAYER
  8
0
  9
$CELTYPE
  6
ByLayer
  9
$CECOLOR
 62
   256
  9
$CELTSCALE
 40
1.0
  9
$DISPSILH
 70
     0
  9
$DIMSCALE
 40
1.0
  9
$DIMASZ
 40
5.1366373698
  9
$DIMEXO
 40
2.0
  9
$DIMDLI
 40
3.75
  9
$DIMRND
 40
0.0
  9
$DIMDLE
 40
0.0
  9
$DIMEXE
 40
2.0
  9
$DIMTP
 40
0.0
  9
$DIMTM
 40
0.0
  9
$DIMTXT
 40
7.0555555556
  9
$DIMCEN
 40
2.5
  9
$DIMTSZ
 40
0.0
  9
$DIMTOL
 70
     0
  9
$DIMLIM
 70
     0
  9
$DIMTIH
 70
     1
  9
$DIMTOH
 70
     1
  9
$DIMSE1
 70
     0
  9
$DIMSE2
 70
     0
  9
$DIMTAD
 70
     1
  9
$DIMZIN
 70
     0
  9
$DIMBLK
  1

  9
$DIMASO
 70
     1
  9
$DIMSHO
 70
     1
  9
$DIMPOST
  1

  9
$DIMAPOST
  1

  9
$DIMALT
 70
     0
  9
$DIMALTD
 70
     3
  9
$DIMALTF
 40
0.0393700787
  9
$DIMLFAC
 40
1.0
  9
$DIMTOFL
 70
     1
  9
$DIMTVP
 40
0.0
  9
$DIMTIX
 70
     0
  9
$DIMSOXD
 70
     0
  9
$DIMSAH
 70
     0
  9
$DIMBLK1
  1

  9
$DIMBLK2
  1

  9
$DIMSTYLE
  2
ISO-25
  9
$DIMCLRD
 70
     0
  9
$DIMCLRE
 70
     0
  9
$DIMCLRT
 70
     0
  9
$DIMTFAC
 40
1.0
  9
$DIMGAP
 40
2.0
  9
$DIMJUST
 70
     0
  9
$DIMSD1
 70
     0
  9
$DIMSD2
 70
     0
  9
$DIMTOLJ
 70
     0
  9
$DIMTZIN
 70
     0
  9
$DIMALTZ
 70
     0
  9
$DIMALTTZ
 70
     0
  9
$DIMUPT
 70
     0
  9
$DIMDEC
 70
     2
  9
$DIMTDEC
 70
     2
  9
$DIMALTU
 70
     2
  9
$DIMALTTD
 70
     3
  9
$DIMTXSTY
  7
Standard
  9
$DIMAUNIT
 70
     0
  9
$DIMADEC
 70
     2
  9
$DIMALTRND
 40
0.0
  9
$DIMAZIN
 70
     0
  9
$DIMDSEP
 70
    44
  9
$DIMATFIT
 70
     3
  9
$DIMFRAC
 70
     0
  9
$DIMLDRBLK
  1

  9
$DIMLUNIT
 70
     2
  9
$DIMLWD
 70
    -2
  9
$DIMLWE
 70
    -2
  9
$DIMTMOVE
 70
     0
  9
$LUNITS
 70
     2
  9
$LUPREC
 70
     2
  9
$SKETCHINC
 40
1.0
  9
$FILLETRAD
 40
10.0
  9
$AUNITS
 70
     0
  9
$AUPREC
 70
     2
  9
$MENU
  1
.
  9
$ELEVATION
 40
0.0
  9
$PELEVATION
 40
0.0
  9
$THICKNESS
 40
0.0
  9
$LIMCHECK
 70
     0
  9
$CHAMFERA
 40
0.0
  9
$CHAMFERB
 40
0.0
  9
$CHAMFERC
 40
0.0
  9
$CHAMFERD
 40
0.0
  9
$SKPOLY
 70
     0
  9
$TDCREATE
 40
2457676.497127187
  9
$TDUCREATE
 40
2457676.413793854
  9
$TDUPDATE
 40
2457676.497127546
  9
$TDUUPDATE
 40
2457676.413794213
  9
$TDINDWG
 40
0.0000000116
  9
$TDUSRTIMER
 40
0.0000000116
  9
$USRTIMER
 70
     1
  9
$ANGBASE
 50
0.0
  9
$ANGDIR
 70
     0
  9
$PDMODE
 70
     0
  9
$PDSIZE
 40
-1.0
  9
$PLINEWID
 40
0.0
  9
$SPLFRAME
 70
     0
  9
$SPLINETYPE
 70
     6
  9
$SPLINESEGS
 70
     8
  9
$HANDSEED
  5
1FB
  9
$SURFTAB1
 70
     6
  9
$SURFTAB2
 70
     6
  9
$SURFTYPE
 70
     6
  9
$SURFU
 70
     6
  9
$SURFV
 70
     6
  9
$UCSBASE
  2

  9
$UCSNAME
  2

  9
$UCSORG
 10
0.0
 20
0.0
 30
0.0
  9
$UCSXDIR
 10
1.0
 20
0.0
 30
0.0
  9
$UCSYDIR
 10
0.0
 20
1.0
 30
0.0
  9
$UCSORTHOREF
  2

  9
$UCSORTHOVIEW
 70
     0
  9
$UCSORGTOP
 10
0.0
 20
0.0
 30
0.0
  9
$UCSORGBOTTOM
 10
0.0
 20
0.0
 30
0.0
  9
$UCSORGLEFT
 10
0.0
 20
0.0
 30
0.0
  9
$UCSORGRIGHT
 10
0.0
 20
0.0
 30
0.0
  9
$UCSORGFRONT
 10
0.0
 20
0.0
 30
0.0
  9
$UCSORGBACK
 10
0.0
 20
0.0
 30
0.0
  9
$PUCSBASE
  2

  9
$PUCSNAME
  2

  9
$PUCSORG
 10
0.0
 20
0.0
 30
0.0
  9
$PUCSXDIR
 10
1.0
 20
0.0
 30
0.0
  9
$PUCSYDIR
 10
0.0
 20
1.0
 30
0.0
  9
$PUCSORTHOREF
  2

  9
$PUCSORTHOVIEW
 70
     0
  9
$PUCSORGTOP
 10
0.0
 20
0.0
 30
0.0
  9
$PUCSORGBOTTOM
 10
0.0
 20
0.0
 30
0.0
  9
$PUCSORGLEFT
 10
0.0
 20
0.0
 30
0.0
  9
$PUCSORGRIGHT
 10
0.0
 20
0.0
 30
0.0
  9
$PUCSORGFRONT
 10
0.0
 20
0.0
 30
0.0
  9
$PUCSORGBACK
 10
0.0
 20
0.0
 30
0.0
  9
$USERI1
 70
     0
  9
$USERI2
 70
     0
  9
$USERI3
 70
     0
  9
$USERI4
 70
     0
  9
$USERI5
 70
     0
  9
$USERR1
 40
0.0
  9
$USERR2
 40
0.0
  9
$USERR3
 40
0.0
  9
$USERR4
 40
0.0
  9
$USERR5
 40
0.0
  9
$WORLDVIEW
 70
     1
  9
$SHADEDGE
 70
     3
  9
$SHADEDIF
 70
    70
  9
$TILEMODE
 70
     1
  9
$MAXACTVP
 70
    64
  9
$PINSBASE
 10
0.0
 20
0.0
 30
0.0
  9
$PLIMCHECK
 70
     0
  9
$PEXTMIN
 10
1.0000000000E+20
 20
1.0000000000E+20
 30
1.0000000000E+20
  9
$PEXTMAX
 10
-1.0000000000E+20
 20
-1.0000000000E+20
 30
-1.0000000000E+20
  9
$PLIMMIN
 10
0.0
 20
0.0
  9
$PLIMMAX
 10
420.0
 20
297.0
  9
$UNITMODE
 70
     0
  9
$VISRETAIN
 70
     1
  9
$PLINEGEN
 70
     0
  9
$PSLTSCALE
 70
     1
  9
$TREEDEPTH
 70
  3020
  9
$CMLSTYLE
  2
Standard
  9
$CMLJUST
 70
     0
  9
$CMLSCALE
 40
20.0
  9
$PROXYGRAPHICS
 70
     1
  9
$MEASUREMENT
 70
     1
  9
$CELWEIGHT
370
    -1
  9
$ENDCAPS
280
     0
  9
$JOINSTYLE
280
     0
  9
$LWDISPLAY
290
     1
  9
$INSUNITS
 70
     4
  9
$HYPERLINKBASE
  1

  9
$STYLESHEET
  1

  9
$XEDIT
290
     1
  9
$CEPSNTYPE
380
     0
  9
$PSTYLEMODE
290
     1
  9
$FINGERPRINTGUID
  2
{93626264-59B6-4C94-B029-1057C00BE6D9}
  9
$VERSIONGUID
  2
{FAEB1C32-E019-11D5-929B-00C0DF256EC4}
  9
$EXTNAMES
290
     1
  9
$PSVPSCALE
 40
0.0
  9
$OLESTARTUP
290
     0
  0
ENDSEC
  0
SECTION
  2
CLASSES
  0
CLASS
  1
ACDBDICTIONARYWDFLT
  2
AcDbDictionaryWithDefault
  3
ObjectDBX Classes
 90
        0
280
     0
281
     0
  0
CLASS
  1
VISUALSTYLE
  2
AcDbVisualStyle
  3
ObjectDBX Classes
 90
     4095
280
     0
281
     0
  0
CLASS
  1
MATERIAL
  2
AcDbMaterial
  3
ObjectDBX Classes
 90
     1153
280
     0
281
     0
  0
CLASS
  1
SCALE
  2
AcDbScale
  3
ObjectDBX Classes
 90
     1153
280
     0
281
     0
  0
CLASS
  1
TABLESTYLE
  2
AcDbTableStyle
  3
ObjectDBX Classes
 90
     4095
280
     0
281
     0
  0
CLASS
  1
MLEADERSTYLE
  2
AcDbMLeaderStyle
  3
ACDB_MLEADERSTYLE_CLASS
 90
     4095
280
     0
281
     0
  0
CLASS
  1
SUN
  2
AcDbSun
  3
SCENEOE
 90
     1153
280
     0
281
     0
  0
CLASS
  1
ACDBPLACEHOLDER
  2
AcDbPlaceHolder
  3
ObjectDBX Classes
 90
        0
280
     0
281
     0
  0
CLASS
  1
LAYOUT
  2
AcDbLayout
  3
ObjectDBX Classes
 90
        0
280
     0
281
     0
  0
ENDSEC
  0
SECTION
  2
TABLES
  0
TABLE
  2
VPORT
  5
8
330
0
100
AcDbSymbolTable
 70
     1
  0
VPORT
  5
29
330
8
100
AcDbSymbolTableRecord
100
AcDbViewportTableRecord
  2
*Active
 70
     0
 10
0.0
 20
0.0
 11
1.0
 21
1.0
 12
215.9
 22
139.7
 13
0.0
 23
0.0
 14
10.0
 24
10.0
 15
10.0
 25
10.0
 16
0.0
 26
0.0
 36
1.0
 17
0.0
 27
0.0
 37
0.0
 40
279.4
 41
1.5454545455
 42
50.0
 43
0.0
 44
0.0
 50
0.0
 51
0.0
 71
     0
 72
  2000
 73
     1
 74
     3
 75
     0
 76
     0
 77
     0
 78
     0
281
     0
 65
     1
110
0.0
120
0.0
130
0.0
111
1.0
121
0.0
131
0.0
112
0.0
122
1.0
132
0.0
 79
     0
146
0.0
  0
ENDTAB
  0
TABLE
  2
LTYPE
  5
5
330
0
100
AcDbSymbolTable
 70
     6
  0
LTYPE
  5
14
330
5
100
AcDbSymbolTableRecord
100
AcDbLinetypeTableRecord
  2
ByBlock
 70
     0
  3

 72
    65
 73
     0
 40
0.0
  0
LTYPE
  5
15
330
5
100
AcDbSymbolTableRecord
100
AcDbLinetypeTableRecord
  2
ByLayer
 70
     0
  3

 72
    65
 73
     0
 40
0.0
  0
LTYPE
  5
16
330
5
100
AcDbSymbolTableRecord
100
AcDbLinetypeTableRecord
  2
Continuous
 70
     0
  3
Solid line
 72
    65
 73
     0
 40
0.0
  0
LTYPE
  5
6E
330
5
100
AcDbSymbolTableRecord
100
AcDbLinetypeTableRecord
  2
HIDDEN
 70
     0
  3
Hidden __ __ __ __ __ __ __ __ __ __ __ __ __ __
 72
    65
 73
     2
 40
1.905
 49
1.27
 74
     0
 49
-0.635
 74
     0
  0
LTYPE
  5
6F
330
5
100
AcDbSymbolTableRecord
100
AcDbLinetypeTableRecord
  2
PHANTOM
 70
     0
  3
Phantom ______  __  __  ______  __  __  ______
 72
    65
 73
     6
 40
12.7
 49
6.35
 74
     0
 49
-1.27
 74
     0
 49
1.27
 74
     0
 49
-1.27
 74
     0
 49
1.27
 74
     0
 49
-1.27
 74
     0
  0
LTYPE
  5
70
330
5
100
AcDbSymbolTableRecord
100
AcDbLinetypeTableRecord
  2
CENTER
 70
     0
  3
Center ____ _ ____ _ ____ _ ____ _ ____ _ ____
 72
    65
 73
     4
 40
10.16
 49
6.35
 74
     0
 49
-1.27
 74
     0
 49
1.27
 74
     0
 49
-1.27
 74
     0
  0
LTYPE
  5
71
330
5
100
AcDbSymbolTableRecord
100
AcDbLinetypeTableRecord
  2
CENTERX2
 70
     0
  3
Center (2x) ________  __  ________  __  _____
 72
    65
 73
     4
 40
20.32
 49
12.7
 74
     0
 49
-2.54
 74
     0
 49
2.54
 74
     0
 49
-2.54
 74
     0
  0
LTYPE
  5
72
330
5
100
AcDbSymbolTableRecord
100
AcDbLinetypeTableRecord
  2
DOT2
 70
     0
  3
Dot (.5x) ........................................
 72
    65
 73
     2
 40
0.635
 49
0.0
 74
     0
 49
-0.635
 74
     0
  0
ENDTAB
  0
TABLE
  2
LAYER
  5
2
330
0
100
AcDbSymbolTable
 70
     3
  0
LAYER
  5
10
330
2
100
AcDbSymbolTableRecord
100
AcDbLayerTableRecord
  2
0
 70
     0
 62
     7
  6
Continuous
370
    -3
390
F
  0
LAYER
  5
73
330
2
100
AcDbSymbolTableRecord
100
AcDbLayerTableRecord
  2
SLD-0
 70
     0
 62
   179
  6
Continuous
370
    -3
390
F
  0
LAYER
  5
74
330
2
100
AcDbSymbolTableRecord
100
AcDbLayerTableRecord
  2
EBENE_1
 70
     0
 62
   179
  6
Continuous
370
    -3
390
F
  0
ENDTAB
  0
TABLE
  2
STYLE
  5
3
330
0
100
AcDbSymbolTable
 70
     3
  0
STYLE
  5
11
330
3
100
AcDbSymbolTableRecord
100
AcDbTextStyleTableRecord
  2
Standard
 70
     0
 40
0.0
 41
1.0
 50
0.0
 71
     0
 42
4.9388888889
  3
txt
  4

  0
STYLE
  5
96
330
3
100
AcDbSymbolTableRecord
100
AcDbTextStyleTableRecord
  2
SLDTEXTSTYLE0
 70
     0
 40
0.0
 41
0.605
 50
0.0
 71
     0
 42
4.9388888889
  3
TXT
  4

  0
STYLE
  5
16E
330
3
100
AcDbSymbolTableRecord
100
AcDbTextStyleTableRecord
  2
SLDTEXTSTYLE1
 70
     0
 40
0.0
 41
0.75
 50
0.0
 71
     0
 42
4.9388888889
  3
TXT
  4

  0
ENDTAB
  0
TABLE
  2
VIEW
  5
6
330
0
100
AcDbSymbolTable
 70
     0
  0
ENDTAB
  0
TABLE
  2
UCS
  5
7
330
0
100
AcDbSymbolTable
 70
     0
  0
ENDTAB
  0
TABLE
  2
APPID
  5
9
330
0
100
AcDbSymbolTable
 70
     1
  0
APPID
  5
12
330
9
100
AcDbSymbolTableRecord
100
AcDbRegAppTableRecord
  2
ACAD
 70
     0
  0
ENDTAB
  0
TABLE
  2
DIMSTYLE
  5
A
330
0
100
AcDbSymbolTable
 70
     1
100
AcDbDimStyleTable
  0
DIMSTYLE
105
27
330
A
100
AcDbSymbolTableRecord
100
AcDbDimStyleTableRecord
  2
ISO-25
 70
     0
 41
2.5
 42
0.625
 43
3.75
 44
1.25
 73
     0
 74
     0
 77
     1
 78
     8
140
2.5
141
2.5
143
0.0393700787
147
0.625
171
     3
172
     1
178
     0
271
     2
272
     2
274
     3
278
    44
283
     0
284
     8
340
11
  0
ENDTAB
  0
TABLE
  2
BLOCK_RECORD
  5
1
330
0
100
AcDbSymbolTable
 70
    25
  0
BLOCK_RECORD
  5
1F
330
1
100
AcDbSymbolTableRecord
100
AcDbBlockTableRecord
  2
*Model_Space
340
22
  0
BLOCK_RECORD
  5
1B
330
1
100
AcDbSymbolTableRecord
100
AcDbBlockTableRecord
  2
*Paper_Space
340
1E
  0
BLOCK_RECORD
  5
23
330
1
100
AcDbSymbolTableRecord
100
AcDbBlockTableRecord
  2
*Paper_Space0
340
26
  0
BLOCK_RECORD
  5
75
330
1
100
AcDbSymbolTableRecord
100
AcDbBlockTableRecord
  2
Block1
340
0
102
{BLKREFS
331
16D
102
}
  0
BLOCK_RECORD
  5
8C
330
1
100
AcDbSymbolTableRecord
100
AcDbBlockTableRecord
  2
SW_BLOCK_DIMENSION_0
340
0
102
{BLKREFS
331
98
102
}
  0
BLOCK_RECORD
  5
8F
330
1
100
AcDbSymbolTableRecord
100
AcDbBlockTableRecord
  2
_ORIGIN
340
0
102
{BLKREFS
331
94
331
104
102
}
  0
BLOCK_RECORD
  5
99
330
1
100
AcDbSymbolTableRecord
100
AcDbBlockTableRecord
  2
SW_BLOCK_DIMENSION_1
340
0
102
{BLKREFS
331
A0
102
}
  0
BLOCK_RECORD
  5
A1
330
1
100
AcDbSymbolTableRecord
100
AcDbBlockTableRecord
  2
SW_BLOCK_DIMENSION_2
340
0
102
{BLKREFS
331
A8
102
}
  0
BLOCK_RECORD
  5
A9
330
1
100
AcDbSymbolTableRecord
100
AcDbBlockTableRecord
  2
SW_BLOCK_DIMENSION_3
340
0
102
{BLKREFS
331
B0
102
}
  0
BLOCK_RECORD
  5
B1
330
1
100
AcDbSymbolTableRecord
100
AcDbBlockTableRecord
  2
SW_BLOCK_DIMENSION_4
340
0
102
{BLKREFS
331
B8
102
}
  0
BLOCK_RECORD
  5
B9
330
1
100
AcDbSymbolTableRecord
100
AcDbBlockTableRecord
  2
SW_BLOCK_DIMENSION_5
340
0
102
{BLKREFS
331
C0
102
}
  0
BLOCK_RECORD
  5
C1
330
1
100
AcDbSymbolTableRecord
100
AcDbBlockTableRecord
  2
SW_BLOCK_DIMENSION_6
340
0
102
{BLKREFS
331
C8
102
}
  0
BLOCK_RECORD
  5
C9
330
1
100
AcDbSymbolTableRecord
100
AcDbBlockTableRecord
  2
SW_BLOCK_DIMENSION_7
340
0
102
{BLKREFS
331
D0
102
}
  0
BLOCK_RECORD
  5
D1
330
1
100
AcDbSymbolTableRecord
100
AcDbBlockTableRecord
  2
SW_BLOCK_DIMENSION_8
340
0
102
{BLKREFS
331
D8
102
}
  0
BLOCK_RECORD
  5
D9
330
1
100
AcDbSymbolTableRecord
100
AcDbBlockTableRecord
  2
SW_BLOCK_DIMENSION_9
340
0
102
{BLKREFS
331
E0
102
}
  0
BLOCK_RECORD
  5
E1
330
1
100
AcDbSymbolTableRecord
100
AcDbBlockTableRecord
  2
SW_BLOCK_DIMENSION_10
340
0
102
{BLKREFS
331
E8
102
}
  0
BLOCK_RECORD
  5
E9
330
1
100
AcDbSymbolTableRecord
100
AcDbBlockTableRecord
  2
SW_BLOCK_DIMENSION_11
340
0
102
{BLKREFS
331
F0
102
}
  0
BLOCK_RECORD
  5
F1
330
1
100
AcDbSymbolTableRecord
100
AcDbBlockTableRecord
  2
SW_BLOCK_DIMENSION_12
340
0
102
{BLKREFS
331
F8
102
}
  0
BLOCK_RECORD
  5
F9
330
1
100
AcDbSymbolTableRecord
100
AcDbBlockTableRecord
  2
SW_BLOCK_DIMENSION_13
340
0
102
{BLKREFS
331
100
102
}
  0
BLOCK_RECORD
  5
101
330
1
100
AcDbSymbolTableRecord
100
AcDbBlockTableRecord
  2
SW_BLOCK_DIMENSION_14
340
0
102
{BLKREFS
331
110
102
}
  0
BLOCK_RECORD
  5
111
330
1
100
AcDbSymbolTableRecord
100
AcDbBlockTableRecord
  2
SW_BLOCK_DIMENSION_15
340
0
102
{BLKREFS
331
121
102
}
  0
BLOCK_RECORD
  5
122
330
1
100
AcDbSymbolTableRecord
100
AcDbBlockTableRecord
  2
SW_BLOCK_DIMENSION_16
340
0
102
{BLKREFS
331
132
102
}
  0
BLOCK_RECORD
  5
133
330
1
100
AcDbSymbolTableRecord
100
AcDbBlockTableRecord
  2
SW_BLOCK_DIMENSION_17
340
0
102
{BLKREFS
331
143
102
}
  0
BLOCK_RECORD
  5
144
330
1
100
AcDbSymbolTableRecord
100
AcDbBlockTableRecord
  2
SW_BLOCK_DIMENSION_18
340
0
102
{BLKREFS
331
154
102
}
  0
BLOCK_RECORD
  5
155
330
1
100
AcDbSymbolTableRecord
100
AcDbBlockTableRecord
  2
SW_BLOCK_DIMENSION_19
340
0
102
{BLKREFS
331
165
102
}
  0
BLOCK_RECORD
  5
166
330
1
100
AcDbSymbolTableRecord
100
AcDbBlockTableRecord
  2
SW_NOTE_0
340
0
102
{BLKREFS
331
16B
102
}
  0
BLOCK_RECORD
  5
171
330
1
100
AcDbSymbolTableRecord
100
AcDbBlockTableRecord
  2
SW_NOTE_1
340
0
102
{BLKREFS
331
178
102
}
  0
ENDTAB
  0
ENDSEC
  0
SECTION
  2
BLOCKS
  0
BLOCK
  5
20
330
1F
100
AcDbEntity
  8
0
100
AcDbBlockBegin
  2
*Model_Space
 70
     0
 10
0.0
 20
0.0
 30
0.0
  3
*Model_Space
  1

  0
ENDBLK
  5
21
330
1F
100
AcDbEntity
  8
0
100
AcDbBlockEnd
  0
BLOCK
  5
1C
330
1B
100
AcDbEntity
 67
     1
  8
0
100
AcDbBlockBegin
  2
*Paper_Space
 70
     0
 10
0.0
 20
0.0
 30
0.0
  3
*Paper_Space
  1

  0
ENDBLK
  5
1D
330
1B
100
AcDbEntity
 67
     1
  8
0
100
AcDbBlockEnd
  0
BLOCK
  5
24
330
23
100
AcDbEntity
  8
0
100
AcDbBlockBegin
  2
*Paper_Space0
 70
     0
 10
0.0
 20
0.0
 30
0.0
  3
*Paper_Space0
  1

  0
ENDBLK
  5
25
330
23
100
AcDbEntity
  8
0
100
AcDbBlockEnd
  0
BLOCK
  5
76
330
75
100
AcDbEntity
  8
0
100
AcDbBlockBegin
  2
Block1
 70
     0
 10
0.0
 20
0.0
 30
0.0
  3
Block1
  1

  0
LINE
  5
78
330
75
100
AcDbEntity
  8
EBENE_1
100
AcDbLine
 10
363.6834285714
 20
41.3579706949
 30
0.0
 11
388.6834285714
 21
41.3579706949
 31
0.0
  0
LINE
  5
79
330
75
100
AcDbEntity
  8
EBENE_1
100
AcDbLine
 10
374.9034285714
 20
41.3579706949
 30
0.0
 11
374.9034285714
 21
171.3579706949
 31
0.0
  0
LINE
  5
7A
330
75
100
AcDbEntity
  8
EBENE_1
100
AcDbLine
 10
374.9034285714
 20
51.3579706949
 30
0.0
 11
384.9034285714
 21
51.3579706949
 31
0.0
  0
LINE
  5
7B
330
75
100
AcDbEntity
  8
EBENE_1
100
AcDbLine
 10
374.9034285714
 20
61.3579706949
 30
0.0
 11
384.9034285714
 21
61.3579706949
 31
0.0
  0
LINE
  5
7C
330
75
100
AcDbEntity
  8
EBENE_1
100
AcDbLine
 10
374.9034285714
 20
71.3579706949
 30
0.0
 11
384.9034285714
 21
71.3579706949
 31
0.0
  0
LINE
  5
7D
330
75
100
AcDbEntity
  8
EBENE_1
100
AcDbLine
 10
374.9034285714
 20
81.3579706949
 30
0.0
 11
384.9034285714
 21
81.3579706949
 31
0.0
  0
LINE
  5
7E
330
75
100
AcDbEntity
  8
EBENE_1
100
AcDbLine
 10
374.9034285714
 20
91.3579706949
 30
0.0
 11
384.9034285714
 21
91.3579706949
 31
0.0
  0
LINE
  5
7F
330
75
100
AcDbEntity
  8
EBENE_1
100
AcDbLine
 10
374.9034285714
 20
101.3579706949
 30
0.0
 11
384.9034285714
 21
101.3579706949
 31
0.0
  0
LINE
  5
80
330
75
100
AcDbEntity
  8
EBENE_1
100
AcDbLine
 10
374.9034285714
 20
111.3579706949
 30
0.0
 11
384.9034285714
 21
111.3579706949
 31
0.0
  0
LINE
  5
81
330
75
100
AcDbEntity
  8
EBENE_1
100
AcDbLine
 10
374.9034285714
 20
121.3579706949
 30
0.0
 11
384.9034285714
 21
121.3579706949
 31
0.0
  0
LINE
  5
82
330
75
100
AcDbEntity
  8
EBENE_1
100
AcDbLine
 10
374.9034285714
 20
131.3579706949
 30
0.0
 11
384.9034285714
 21
131.3579706949
 31
0.0
  0
LINE
  5
83
330
75
100
AcDbEntity
  8
EBENE_1
100
AcDbLine
 10
374.9034285714
 20
141.3579706949
 30
0.0
 11
384.9034285714
 21
141.3579706949
 31
0.0
  0
LINE
  5
84
330
75
100
AcDbEntity
  8
EBENE_1
100
AcDbLine
 10
374.9034285714
 20
151.3579706949
 30
0.0
 11
384.9034285714
 21
151.3579706949
 31
0.0
  0
LINE
  5
85
330
75
100
AcDbEntity
  8
EBENE_1
100
AcDbLine
 10
374.9034285714
 20
161.3579706949
 30
0.0
 11
384.9034285714
 21
161.3579706949
 31
0.0
  0
LINE
  5
86
330
75
100
AcDbEntity
  8
EBENE_1
100
AcDbLine
 10
374.9034285714
 20
171.3579706949
 30
0.0
 11
384.9034285714
 21
171.3579706949
 31
0.0
  0
LINE
  5
87
330
75
100
AcDbEntity
  8
EBENE_1
100
AcDbLine
 10
374.9034285714
 20
66.7579706949
 30
0.0
 11
362.9034285714
 21
66.7579706949
 31
0.0
  0
LINE
  5
88
330
75
100
AcDbEntity
  8
EBENE_1
100
AcDbLine
 10
374.9034285714
 20
92.1579706949
 30
0.0
 11
362.9034285714
 21
92.1579706949
 31
0.0
  0
LINE
  5
89
330
75
100
AcDbEntity
  8
EBENE_1
100
AcDbLine
 10
374.9034285714
 20
117.5579706949
 30
0.0
 11
362.9034285714
 21
117.5579706949
 31
0.0
  0
LINE
  5
8A
330
75
100
AcDbEntity
  8
EBENE_1
100
AcDbLine
 10
374.9034285714
 20
142.9579706949
 30
0.0
 11
362.9034285714
 21
142.9579706949
 31
0.0
  0
LINE
  5
8B
330
75
100
AcDbEntity
  8
EBENE_1
100
AcDbLine
 10
374.9034285714
 20
168.3579706949
 30
0.0
 11
362.9034285714
 21
168.3579706949
 31
0.0
  0
INSERT
  5
98
330
75
100
AcDbEntity
  8
EBENE_1
100
AcDbBlockReference
  2
SW_BLOCK_DIMENSION_0
 10
397.2096946378
 20
38.9914197296
 30
0.0
  0
INSERT
  5
A0
330
75
100
AcDbEntity
  8
EBENE_1
100
AcDbBlockReference
  2
SW_BLOCK_DIMENSION_1
 10
397.2096946378
 20
48.9914197296
 30
0.0
  0
INSERT
  5
A8
330
75
100
AcDbEntity
  8
EBENE_1
100
AcDbBlockReference
  2
SW_BLOCK_DIMENSION_2
 10
397.2096946378
 20
58.9914197296
 30
0.0
  0
INSERT
  5
B0
330
75
100
AcDbEntity
  8
EBENE_1
100
AcDbBlockReference
  2
SW_BLOCK_DIMENSION_3
 10
397.2096946378
 20
68.9914197296
 30
0.0
  0
INSERT
  5
B8
330
75
100
AcDbEntity
  8
EBENE_1
100
AcDbBlockReference
  2
SW_BLOCK_DIMENSION_4
 10
397.2096946378
 20
78.9914197296
 30
0.0
  0
INSERT
  5
C0
330
75
100
AcDbEntity
  8
EBENE_1
100
AcDbBlockReference
  2
SW_BLOCK_DIMENSION_5
 10
397.2096946378
 20
88.9914197296
 30
0.0
  0
INSERT
  5
C8
330
75
100
AcDbEntity
  8
EBENE_1
100
AcDbBlockReference
  2
SW_BLOCK_DIMENSION_6
 10
397.2096946378
 20
98.9914197296
 30
0.0
  0
INSERT
  5
D0
330
75
100
AcDbEntity
  8
EBENE_1
100
AcDbBlockReference
  2
SW_BLOCK_DIMENSION_7
 10
397.2096946378
 20
108.9914197296
 30
0.0
  0
INSERT
  5
D8
330
75
100
AcDbEntity
  8
EBENE_1
100
AcDbBlockReference
  2
SW_BLOCK_DIMENSION_8
 10
397.2096946378
 20
118.9914197296
 30
0.0
  0
INSERT
  5
E0
330
75
100
AcDbEntity
  8
EBENE_1
100
AcDbBlockReference
  2
SW_BLOCK_DIMENSION_9
 10
397.2096946378
 20
128.9914197296
 30
0.0
  0
INSERT
  5
E8
330
75
100
AcDbEntity
  8
EBENE_1
100
AcDbBlockReference
  2
SW_BLOCK_DIMENSION_10
 10
397.2096946378
 20
138.9914197296
 30
0.0
  0
INSERT
  5
F0
330
75
100
AcDbEntity
  8
EBENE_1
100
AcDbBlockReference
  2
SW_BLOCK_DIMENSION_11
 10
397.2096946378
 20
148.9914197296
 30
0.0
  0
INSERT
  5
F8
330
75
100
AcDbEntity
  8
EBENE_1
100
AcDbBlockReference
  2
SW_BLOCK_DIMENSION_12
 10
397.2096946378
 20
158.9914197296
 30
0.0
  0
INSERT
  5
100
330
75
100
AcDbEntity
  8
EBENE_1
100
AcDbBlockReference
  2
SW_BLOCK_DIMENSION_13
 10
397.2096946378
 20
168.9914197296
 30
0.0
  0
INSERT
  5
110
330
75
100
AcDbEntity
  8
EBENE_1
100
AcDbBlockReference
  2
SW_BLOCK_DIMENSION_14
 10
337.2987953614
 20
36.1691980072
 30
0.0
  0
INSERT
  5
121
330
75
100
AcDbEntity
  8
EBENE_1
100
AcDbBlockReference
  2
SW_BLOCK_DIMENSION_15
 10
337.2987953614
 20
61.5691980072
 30
0.0
  0
INSERT
  5
132
330
75
100
AcDbEntity
  8
EBENE_1
100
AcDbBlockReference
  2
SW_BLOCK_DIMENSION_16
 10
337.2987953614
 20
86.9691980072
 30
0.0
  0
INSERT
  5
143
330
75
100
AcDbEntity
  8
EBENE_1
100
AcDbBlockReference
  2
SW_BLOCK_DIMENSION_17
 10
337.2987953614
 20
112.3691980072
 30
0.0
  0
INSERT
  5
154
330
75
100
AcDbEntity
  8
EBENE_1
100
AcDbBlockReference
  2
SW_BLOCK_DIMENSION_18
 10
336.8284243759
 20
137.7691980072
 30
0.0
  0
INSERT
  5
165
330
75
100
AcDbEntity
  8
EBENE_1
100
AcDbBlockReference
  2
SW_BLOCK_DIMENSION_19
 10
337.2987953614
 20
163.1691980072
 30
0.0
  0
INSERT
  5
16B
330
75
100
AcDbEntity
  8
EBENE_1
 62
   179
100
AcDbBlockReference
  2
SW_NOTE_0
 10
337.5586028241
 20
28.8175207347
 30
0.0
  0
MTEXT
  5
16C
330
75
100
AcDbEntity
  8
EBENE_1
100
AcDbMText
 10
393.160738319
 20
33.5924424874
 30
0.0
 40
3.7041666667
 41
0.0
 71
     1
 72
     1
  1
mm
  7
SLDTEXTSTYLE0
 73
     1
 44
1.0
  0
ENDBLK
  5
77
330
75
100
AcDbEntity
  8
0
100
AcDbBlockEnd
  0
BLOCK
  5
8D
330
8C
100
AcDbEntity
  8
0
100
AcDbBlockBegin
  2
SW_BLOCK_DIMENSION_0
 70
     0
 10
0.0
 20
0.0
 30
0.0
  3
SW_BLOCK_DIMENSION_0
  1

  0
INSERT
  5
94
330
8C
100
AcDbEntity
  8
EBENE_1
 62
     0
100
AcDbBlockReference
  2
_ORIGIN
 10
-1.5805038061
 20
2.3665509652
 30
0.0
 41
0.9483022837
 42
0.9483022837
 50
0.0
  0
LINE
  5
95
330
8C
100
AcDbEntity
  8
EBENE_1
 62
     0
100
AcDbLine
 10
-6.5262660664
 20
2.3665509652
 30
0.0
 11
0.0
 21
2.3665509652
 31
0.0
  0
MTEXT
  5
97
330
8C
100
AcDbEntity
  8
EBENE_1
 62
     0
100
AcDbMText
 10
0.0
 20
4.0927900738
 30
0.0
 40
3.175
 41
0.0
 71
     1
 72
     1
  1
0
  7
SLDTEXTSTYLE0
 73
     1
 44
1.0
  0
ENDBLK
  5
8E
330
8C
100
AcDbEntity
  8
0
100
AcDbBlockEnd
  0
BLOCK
  5
90
330
8F
100
AcDbEntity
  8
0
100
AcDbBlockBegin
  2
_ORIGIN
 70
     0
 10
0.0
 20
0.0
 30
0.0
  3
_ORIGIN
  1

  0
CIRCLE
  5
92
330
8F
100
AcDbEntity
  8
0
  6
ByBlock
 62
     0
370
    -2
100
AcDbCircle
 10
0.0
 20
0.0
 30
0.0
 40
0.5
  0
LINE
  5
93
330
8F
100
AcDbEntity
  8
0
  6
ByBlock
 62
     0
370
    -2
100
AcDbLine
 10
0.0
 20
0.0
 30
0.0
 11
-1.0
 21
0.0
 31
0.0
  0
ENDBLK
  5
91
330
8F
100
AcDbEntity
  8
0
100
AcDbBlockEnd
  0
BLOCK
  5
9A
330
99
100
AcDbEntity
  8
0
100
AcDbBlockBegin
  2
SW_BLOCK_DIMENSION_1
 70
     0
 10
0.0
 20
0.0
 30
0.0
  3
SW_BLOCK_DIMENSION_1
  1

  0
SOLID
  5
9C
330
99
100
AcDbEntity
  8
EBENE_1
 62
     0
100
AcDbTrace
 10
-1.5805038061
 20
2.3665509652
 30
0.0
 11
-2.0546549479
 21
-0.7154314566
 31
0.0
 12
-1.1063526643
 22
-0.7154314566
 32
0.0
 13
-1.1063526643
 23
-0.7154314566
 33
0.0
  0
LINE
  5
9D
330
99
100
AcDbEntity
  8
EBENE_1
 62
     0
100
AcDbLine
 10
-10.3062660664
 20
2.3665509652
 30
0.0
 11
0.0
 21
2.3665509652
 31
0.0
  0
LINE
  5
9E
330
99
100
AcDbEntity
  8
EBENE_1
 62
     0
100
AcDbLine
 10
-1.5805038061
 20
-7.6334490348
 30
0.0
 11
-1.5805038061
 21
2.3665509652
 31
0.0
  0
MTEXT
  5
9F
330
99
100
AcDbEntity
  8
EBENE_1
 62
     0
100
AcDbMText
 10
0.0
 20
4.0927900738
 30
0.0
 40
3.175
 41
0.0
 71
     1
 72
     1
  1
10
  7
SLDTEXTSTYLE0
 73
     1
 44
1.0
  0
ENDBLK
  5
9B
330
99
100
AcDbEntity
  8
0
100
AcDbBlockEnd
  0
BLOCK
  5
A2
330
A1
100
AcDbEntity
  8
0
100
AcDbBlockBegin
  2
SW_BLOCK_DIMENSION_2
 70
     0
 10
0.0
 20
0.0
 30
0.0
  3
SW_BLOCK_DIMENSION_2
  1

  0
SOLID
  5
A4
330
A1
100
AcDbEntity
  8
EBENE_1
 62
     0
100
AcDbTrace
 10
-1.5805038061
 20
2.3665509652
 30
0.0
 11
-2.0546549479
 21
-0.7154314566
 31
0.0
 12
-1.1063526643
 22
-0.7154314566
 32
0.0
 13
-1.1063526643
 23
-0.7154314566
 33
0.0
  0
LINE
  5
A5
330
A1
100
AcDbEntity
  8
EBENE_1
 62
     0
100
AcDbLine
 10
-10.3062660664
 20
2.3665509652
 30
0.0
 11
0.0
 21
2.3665509652
 31
0.0
  0
LINE
  5
A6
330
A1
100
AcDbEntity
  8
EBENE_1
 62
     0
100
AcDbLine
 10
-1.5805038061
 20
-7.6334490348
 30
0.0
 11
-1.5805038061
 21
2.3665509652
 31
0.0
  0
MTEXT
  5
A7
330
A1
100
AcDbEntity
  8
EBENE_1
 62
     0
100
AcDbMText
 10
0.0
 20
4.0927900738
 30
0.0
 40
3.175
 41
0.0
 71
     1
 72
     1
  1
20
  7
SLDTEXTSTYLE0
 73
     1
 44
1.0
  0
ENDBLK
  5
A3
330
A1
100
AcDbEntity
  8
0
100
AcDbBlockEnd
  0
BLOCK
  5
AA
330
A9
100
AcDbEntity
  8
0
100
AcDbBlockBegin
  2
SW_BLOCK_DIMENSION_3
 70
     0
 10
0.0
 20
0.0
 30
0.0
  3
SW_BLOCK_DIMENSION_3
  1

  0
SOLID
  5
AC
330
A9
100
AcDbEntity
  8
EBENE_1
 62
     0
100
AcDbTrace
 10
-1.5805038061
 20
2.3665509652
 30
0.0
 11
-2.0546549479
 21
-0.7154314566
 31
0.0
 12
-1.1063526643
 22
-0.7154314566
 32
0.0
 13
-1.1063526643
 23
-0.7154314566
 33
0.0
  0
LINE
  5
AD
330
A9
100
AcDbEntity
  8
EBENE_1
 62
     0
100
AcDbLine
 10
-10.3062660664
 20
2.3665509652
 30
0.0
 11
0.0
 21
2.3665509652
 31
0.0
  0
LINE
  5
AE
330
A9
100
AcDbEntity
  8
EBENE_1
 62
     0
100
AcDbLine
 10
-1.5805038061
 20
-7.6334490348
 30
0.0
 11
-1.5805038061
 21
2.3665509652
 31
0.0
  0
MTEXT
  5
AF
330
A9
100
AcDbEntity
  8
EBENE_1
 62
     0
100
AcDbMText
 10
0.0
 20
4.0927900738
 30
0.0
 40
3.175
 41
0.0
 71
     1
 72
     1
  1
30
  7
SLDTEXTSTYLE0
 73
     1
 44
1.0
  0
ENDBLK
  5
AB
330
A9
100
AcDbEntity
  8
0
100
AcDbBlockEnd
  0
BLOCK
  5
B2
330
B1
100
AcDbEntity
  8
0
100
AcDbBlockBegin
  2
SW_BLOCK_DIMENSION_4
 70
     0
 10
0.0
 20
0.0
 30
0.0
  3
SW_BLOCK_DIMENSION_4
  1

  0
SOLID
  5
B4
330
B1
100
AcDbEntity
  8
EBENE_1
 62
     0
100
AcDbTrace
 10
-1.5805038061
 20
2.3665509652
 30
0.0
 11
-2.0546549479
 21
-0.7154314566
 31
0.0
 12
-1.1063526643
 22
-0.7154314566
 32
0.0
 13
-1.1063526643
 23
-0.7154314566
 33
0.0
  0
LINE
  5
B5
330
B1
100
AcDbEntity
  8
EBENE_1
 62
     0
100
AcDbLine
 10
-10.3062660664
 20
2.3665509652
 30
0.0
 11
0.0
 21
2.3665509652
 31
0.0
  0
LINE
  5
B6
330
B1
100
AcDbEntity
  8
EBENE_1
 62
     0
100
AcDbLine
 10
-1.5805038061
 20
-7.6334490348
 30
0.0
 11
-1.5805038061
 21
2.3665509652
 31
0.0
  0
MTEXT
  5
B7
330
B1
100
AcDbEntity
  8
EBENE_1
 62
     0
100
AcDbMText
 10
0.0
 20
4.0927900738
 30
0.0
 40
3.175
 41
0.0
 71
     1
 72
     1
  1
40
  7
SLDTEXTSTYLE0
 73
     1
 44
1.0
  0
ENDBLK
  5
B3
330
B1
100
AcDbEntity
  8
0
100
AcDbBlockEnd
  0
BLOCK
  5
BA
330
B9
100
AcDbEntity
  8
0
100
AcDbBlockBegin
  2
SW_BLOCK_DIMENSION_5
 70
     0
 10
0.0
 20
0.0
 30
0.0
  3
SW_BLOCK_DIMENSION_5
  1

  0
SOLID
  5
BC
330
B9
100
AcDbEntity
  8
EBENE_1
 62
     0
100
AcDbTrace
 10
-1.5805038061
 20
2.3665509652
 30
0.0
 11
-2.0546549479
 21
-0.7154314566
 31
0.0
 12
-1.1063526643
 22
-0.7154314566
 32
0.0
 13
-1.1063526643
 23
-0.7154314566
 33
0.0
  0
LINE
  5
BD
330
B9
100
AcDbEntity
  8
EBENE_1
 62
     0
100
AcDbLine
 10
-10.3062660664
 20
2.3665509652
 30
0.0
 11
0.0
 21
2.3665509652
 31
0.0
  0
LINE
  5
BE
330
B9
100
AcDbEntity
  8
EBENE_1
 62
     0
100
AcDbLine
 10
-1.5805038061
 20
-7.6334490348
 30
0.0
 11
-1.5805038061
 21
2.3665509652
 31
0.0
  0
MTEXT
  5
BF
330
B9
100
AcDbEntity
  8
EBENE_1
 62
     0
100
AcDbMText
 10
0.0
 20
4.0927900738
 30
0.0
 40
3.175
 41
0.0
 71
     1
 72
     1
  1
50
  7
SLDTEXTSTYLE0
 73
     1
 44
1.0
  0
ENDBLK
  5
BB
330
B9
100
AcDbEntity
  8
0
100
AcDbBlockEnd
  0
BLOCK
  5
C2
330
C1
100
AcDbEntity
  8
0
100
AcDbBlockBegin
  2
SW_BLOCK_DIMENSION_6
 70
     0
 10
0.0
 20
0.0
 30
0.0
  3
SW_BLOCK_DIMENSION_6
  1

  0
SOLID
  5
C4
330
C1
100
AcDbEntity
  8
EBENE_1
 62
     0
100
AcDbTrace
 10
-1.5805038061
 20
2.3665509652
 30
0.0
 11
-2.0546549479
 21
-0.7154314566
 31
0.0
 12
-1.1063526643
 22
-0.7154314566
 32
0.0
 13
-1.1063526643
 23
-0.7154314566
 33
0.0
  0
LINE
  5
C5
330
C1
100
AcDbEntity
  8
EBENE_1
 62
     0
100
AcDbLine
 10
-10.3062660664
 20
2.3665509652
 30
0.0
 11
0.0
 21
2.3665509652
 31
0.0
  0
LINE
  5
C6
330
C1
100
AcDbEntity
  8
EBENE_1
 62
     0
100
AcDbLine
 10
-1.5805038061
 20
-7.6334490348
 30
0.0
 11
-1.5805038061
 21
2.3665509652
 31
0.0
  0
MTEXT
  5
C7
330
C1
100
AcDbEntity
  8
EBENE_1
 62
     0
100
AcDbMText
 10
0.0
 20
4.0927900738
 30
0.0
 40
3.175
 41
0.0
 71
     1
 72
     1
  1
60
  7
SLDTEXTSTYLE0
 73
     1
 44
1.0
  0
ENDBLK
  5
C3
330
C1
100
AcDbEntity
  8
0
100
AcDbBlockEnd
  0
BLOCK
  5
CA
330
C9
100
AcDbEntity
  8
0
100
AcDbBlockBegin
  2
SW_BLOCK_DIMENSION_7
 70
     0
 10
0.0
 20
0.0
 30
0.0
  3
SW_BLOCK_DIMENSION_7
  1

  0
SOLID
  5
CC
330
C9
100
AcDbEntity
  8
EBENE_1
 62
     0
100
AcDbTrace
 10
-1.5805038061
 20
2.3665509652
 30
0.0
 11
-2.0546549479
 21
-0.7154314566
 31
0.0
 12
-1.1063526643
 22
-0.7154314566
 32
0.0
 13
-1.1063526643
 23
-0.7154314566
 33
0.0
  0
LINE
  5
CD
330
C9
100
AcDbEntity
  8
EBENE_1
 62
     0
100
AcDbLine
 10
-10.3062660664
 20
2.3665509652
 30
0.0
 11
0.0
 21
2.3665509652
 31
0.0
  0
LINE
  5
CE
330
C9
100
AcDbEntity
  8
EBENE_1
 62
     0
100
AcDbLine
 10
-1.5805038061
 20
-7.6334490348
 30
0.0
 11
-1.5805038061
 21
2.3665509652
 31
0.0
  0
MTEXT
  5
CF
330
C9
100
AcDbEntity
  8
EBENE_1
 62
     0
100
AcDbMText
 10
0.0
 20
4.0927900738
 30
0.0
 40
3.175
 41
0.0
 71
     1
 72
     1
  1
70
  7
SLDTEXTSTYLE0
 73
     1
 44
1.0
  0
ENDBLK
  5
CB
330
C9
100
AcDbEntity
  8
0
100
AcDbBlockEnd
  0
BLOCK
  5
D2
330
D1
100
AcDbEntity
  8
0
100
AcDbBlockBegin
  2
SW_BLOCK_DIMENSION_8
 70
     0
 10
0.0
 20
0.0
 30
0.0
  3
SW_BLOCK_DIMENSION_8
  1

  0
SOLID
  5
D4
330
D1
100
AcDbEntity
  8
EBENE_1
 62
     0
100
AcDbTrace
 10
-1.5805038061
 20
2.3665509652
 30
0.0
 11
-2.0546549479
 21
-0.7154314566
 31
0.0
 12
-1.1063526643
 22
-0.7154314566
 32
0.0
 13
-1.1063526643
 23
-0.7154314566
 33
0.0
  0
LINE
  5
D5
330
D1
100
AcDbEntity
  8
EBENE_1
 62
     0
100
AcDbLine
 10
-10.3062660664
 20
2.3665509652
 30
0.0
 11
0.0
 21
2.3665509652
 31
0.0
  0
LINE
  5
D6
330
D1
100
AcDbEntity
  8
EBENE_1
 62
     0
100
AcDbLine
 10
-1.5805038061
 20
-7.6334490348
 30
0.0
 11
-1.5805038061
 21
2.3665509652
 31
0.0
  0
MTEXT
  5
D7
330
D1
100
AcDbEntity
  8
EBENE_1
 62
     0
100
AcDbMText
 10
0.0
 20
4.0927900738
 30
0.0
 40
3.175
 41
0.0
 71
     1
 72
     1
  1
80
  7
SLDTEXTSTYLE0
 73
     1
 44
1.0
  0
ENDBLK
  5
D3
330
D1
100
AcDbEntity
  8
0
100
AcDbBlockEnd
  0
BLOCK
  5
DA
330
D9
100
AcDbEntity
  8
0
100
AcDbBlockBegin
  2
SW_BLOCK_DIMENSION_9
 70
     0
 10
0.0
 20
0.0
 30
0.0
  3
SW_BLOCK_DIMENSION_9
  1

  0
SOLID
  5
DC
330
D9
100
AcDbEntity
  8
EBENE_1
 62
     0
100
AcDbTrace
 10
-1.5805038061
 20
2.3665509652
 30
0.0
 11
-2.0546549479
 21
-0.7154314566
 31
0.0
 12
-1.1063526643
 22
-0.7154314566
 32
0.0
 13
-1.1063526643
 23
-0.7154314566
 33
0.0
  0
LINE
  5
DD
330
D9
100
AcDbEntity
  8
EBENE_1
 62
     0
100
AcDbLine
 10
-10.3062660664
 20
2.3665509652
 30
0.0
 11
0.0
 21
2.3665509652
 31
0.0
  0
LINE
  5
DE
330
D9
100
AcDbEntity
  8
EBENE_1
 62
     0
100
AcDbLine
 10
-1.5805038061
 20
-7.6334490348
 30
0.0
 11
-1.5805038061
 21
2.3665509652
 31
0.0
  0
MTEXT
  5
DF
330
D9
100
AcDbEntity
  8
EBENE_1
 62
     0
100
AcDbMText
 10
0.0
 20
4.0927900738
 30
0.0
 40
3.175
 41
0.0
 71
     1
 72
     1
  1
90
  7
SLDTEXTSTYLE0
 73
     1
 44
1.0
  0
ENDBLK
  5
DB
330
D9
100
AcDbEntity
  8
0
100
AcDbBlockEnd
  0
BLOCK
  5
E2
330
E1
100
AcDbEntity
  8
0
100
AcDbBlockBegin
  2
SW_BLOCK_DIMENSION_10
 70
     0
 10
0.0
 20
0.0
 30
0.0
  3
SW_BLOCK_DIMENSION_10
  1

  0
SOLID
  5
E4
330
E1
100
AcDbEntity
  8
EBENE_1
 62
     0
100
AcDbTrace
 10
-1.5805038061
 20
2.3665509652
 30
0.0
 11
-2.0546549479
 21
-0.7154314566
 31
0.0
 12
-1.1063526643
 22
-0.7154314566
 32
0.0
 13
-1.1063526643
 23
-0.7154314566
 33
0.0
  0
LINE
  5
E5
330
E1
100
AcDbEntity
  8
EBENE_1
 62
     0
100
AcDbLine
 10
-10.3062660664
 20
2.3665509652
 30
0.0
 11
0.0
 21
2.3665509652
 31
0.0
  0
LINE
  5
E6
330
E1
100
AcDbEntity
  8
EBENE_1
 62
     0
100
AcDbLine
 10
-1.5805038061
 20
-7.6334490348
 30
0.0
 11
-1.5805038061
 21
2.3665509652
 31
0.0
  0
MTEXT
  5
E7
330
E1
100
AcDbEntity
  8
EBENE_1
 62
     0
100
AcDbMText
 10
0.0
 20
4.0927900738
 30
0.0
 40
3.175
 41
0.0
 71
     1
 72
     1
  1
100
  7
SLDTEXTSTYLE0
 73
     1
 44
1.0
  0
ENDBLK
  5
E3
330
E1
100
AcDbEntity
  8
0
100
AcDbBlockEnd
  0
BLOCK
  5
EA
330
E9
100
AcDbEntity
  8
0
100
AcDbBlockBegin
  2
SW_BLOCK_DIMENSION_11
 70
     0
 10
0.0
 20
0.0
 30
0.0
  3
SW_BLOCK_DIMENSION_11
  1

  0
SOLID
  5
EC
330
E9
100
AcDbEntity
  8
EBENE_1
 62
     0
100
AcDbTrace
 10
-1.5805038061
 20
2.3665509652
 30
0.0
 11
-2.0546549479
 21
-0.7154314566
 31
0.0
 12
-1.1063526643
 22
-0.7154314566
 32
0.0
 13
-1.1063526643
 23
-0.7154314566
 33
0.0
  0
LINE
  5
ED
330
E9
100
AcDbEntity
  8
EBENE_1
 62
     0
100
AcDbLine
 10
-10.3062660664
 20
2.3665509652
 30
0.0
 11
0.0
 21
2.3665509652
 31
0.0
  0
LINE
  5
EE
330
E9
100
AcDbEntity
  8
EBENE_1
 62
     0
100
AcDbLine
 10
-1.5805038061
 20
-7.6334490348
 30
0.0
 11
-1.5805038061
 21
2.3665509652
 31
0.0
  0
MTEXT
  5
EF
330
E9
100
AcDbEntity
  8
EBENE_1
 62
     0
100
AcDbMText
 10
0.0
 20
4.0927900738
 30
0.0
 40
3.175
 41
0.0
 71
     1
 72
     1
  1
110
  7
SLDTEXTSTYLE0
 73
     1
 44
1.0
  0
ENDBLK
  5
EB
330
E9
100
AcDbEntity
  8
0
100
AcDbBlockEnd
  0
BLOCK
  5
F2
330
F1
100
AcDbEntity
  8
0
100
AcDbBlockBegin
  2
SW_BLOCK_DIMENSION_12
 70
     0
 10
0.0
 20
0.0
 30
0.0
  3
SW_BLOCK_DIMENSION_12
  1

  0
SOLID
  5
F4
330
F1
100
AcDbEntity
  8
EBENE_1
 62
     0
100
AcDbTrace
 10
-1.5805038061
 20
2.3665509652
 30
0.0
 11
-2.0546549479
 21
-0.7154314566
 31
0.0
 12
-1.1063526643
 22
-0.7154314566
 32
0.0
 13
-1.1063526643
 23
-0.7154314566
 33
0.0
  0
LINE
  5
F5
330
F1
100
AcDbEntity
  8
EBENE_1
 62
     0
100
AcDbLine
 10
-10.3062660664
 20
2.3665509652
 30
0.0
 11
0.0
 21
2.3665509652
 31
0.0
  0
LINE
  5
F6
330
F1
100
AcDbEntity
  8
EBENE_1
 62
     0
100
AcDbLine
 10
-1.5805038061
 20
-7.6334490348
 30
0.0
 11
-1.5805038061
 21
2.3665509652
 31
0.0
  0
MTEXT
  5
F7
330
F1
100
AcDbEntity
  8
EBENE_1
 62
     0
100
AcDbMText
 10
0.0
 20
4.0927900738
 30
0.0
 40
3.175
 41
0.0
 71
     1
 72
     1
  1
120
  7
SLDTEXTSTYLE0
 73
     1
 44
1.0
  0
ENDBLK
  5
F3
330
F1
100
AcDbEntity
  8
0
100
AcDbBlockEnd
  0
BLOCK
  5
FA
330
F9
100
AcDbEntity
  8
0
100
AcDbBlockBegin
  2
SW_BLOCK_DIMENSION_13
 70
     0
 10
0.0
 20
0.0
 30
0.0
  3
SW_BLOCK_DIMENSION_13
  1

  0
SOLID
  5
FC
330
F9
100
AcDbEntity
  8
EBENE_1
 62
     0
100
AcDbTrace
 10
-1.5805038061
 20
2.3665509652
 30
0.0
 11
-2.0546549479
 21
-0.7154314566
 31
0.0
 12
-1.1063526643
 22
-0.7154314566
 32
0.0
 13
-1.1063526643
 23
-0.7154314566
 33
0.0
  0
LINE
  5
FD
330
F9
100
AcDbEntity
  8
EBENE_1
 62
     0
100
AcDbLine
 10
-10.3062660664
 20
2.3665509652
 30
0.0
 11
0.0
 21
2.3665509652
 31
0.0
  0
LINE
  5
FE
330
F9
100
AcDbEntity
  8
EBENE_1
 62
     0
100
AcDbLine
 10
-1.5805038061
 20
-7.6334490348
 30
0.0
 11
-1.5805038061
 21
2.3665509652
 31
0.0
  0
MTEXT
  5
FF
330
F9
100
AcDbEntity
  8
EBENE_1
 62
     0
100
AcDbMText
 10
0.0
 20
4.0927900738
 30
0.0
 40
3.175
 41
0.0
 71
     1
 72
     1
  1
130
  7
SLDTEXTSTYLE0
 73
     1
 44
1.0
  0
ENDBLK
  5
FB
330
F9
100
AcDbEntity
  8
0
100
AcDbBlockEnd
  0
BLOCK
  5
102
330
101
100
AcDbEntity
  8
0
100
AcDbBlockBegin
  2
SW_BLOCK_DIMENSION_14
 70
     0
 10
0.0
 20
0.0
 30
0.0
  3
SW_BLOCK_DIMENSION_14
  1

  0
INSERT
  5
104
330
101
100
AcDbEntity
  8
EBENE_1
 62
     0
100
AcDbBlockReference
  2
_ORIGIN
 10
16.3971707594
 20
5.1887726877
 30
0.0
 41
0.9483022837
 42
0.9483022837
 50
0.0
  0
LINE
  5
105
330
101
100
AcDbEntity
  8
EBENE_1
 62
     0
100
AcDbLine
 10
3.2925925916
 20
9.671990294
 30
0.0
 11
2.2342592711
 21
9.671990294
 31
0.0
  0
LINE
  5
106
330
101
100
AcDbEntity
  8
EBENE_1
 62
     0
100
AcDbLine
 10
2.2342592711
 20
9.671990294
 30
0.0
 11
2.2342592711
 21
4.9388883635
 31
0.0
  0
LINE
  5
107
330
101
100
AcDbEntity
  8
EBENE_1
 62
     0
100
AcDbLine
 10
2.2342592711
 20
4.9388883635
 30
0.0
 11
3.2925925916
 21
4.9388883635
 31
0.0
  0
LINE
  5
108
330
101
100
AcDbEntity
  8
EBENE_1
 62
     0
100
AcDbLine
 10
11.5240741288
 20
9.671990294
 30
0.0
 11
12.5824074494
 21
9.671990294
 31
0.0
  0
LINE
  5
109
330
101
100
AcDbEntity
  8
EBENE_1
 62
     0
100
AcDbLine
 10
12.5824074494
 20
9.671990294
 30
0.0
 11
12.5824074494
 21
4.9388883635
 31
0.0
  0
LINE
  5
10A
330
101
100
AcDbEntity
  8
EBENE_1
 62
     0
100
AcDbLine
 10
12.5824074494
 20
4.9388883635
 30
0.0
 11
11.5240741288
 21
4.9388883635
 31
0.0
  0
LINE
  5
10B
330
101
100
AcDbEntity
  8
EBENE_1
 62
     0
100
AcDbLine
 10
24.38463321
 20
5.1887726877
 30
0.0
 11
14.8166669533
 21
5.1887726877
 31
0.0
  0
MTEXT
  5
10C
330
101
100
AcDbEntity
  8
EBENE_1
 62
     0
100
AcDbMText
 10
1.190625
 20
4.0927900738
 30
0.0
 40
3.175
 41
0.0
 71
     1
 72
     1
  1

  7
SLDTEXTSTYLE0
 73
     1
 44
1.0
  0
MTEXT
  5
10D
330
101
100
AcDbEntity
  8
EBENE_1
 62
     0
100
AcDbMText
 10
3.2925925916
 20
9.0316784373
 30
0.0
 40
3.175
 41
0.0
 71
     1
 72
     1
  1
0,00
  7
SLDTEXTSTYLE0
 73
     1
 44
1.0
  0
MTEXT
  5
10E
330
101
100
AcDbEntity
  8
EBENE_1
 62
     0
100
AcDbMText
 10
6.2324074097
 20
4.0927898409
 30
0.0
 40
3.175
 41
0.0
 71
     1
 72
     1
  1
0
  7
SLDTEXTSTYLE0
 73
     1
 44
1.0
  0
MTEXT
  5
10F
330
101
100
AcDbEntity
  8
EBENE_1
 62
     0
100
AcDbMText
 10
14.8313658863
 20
4.0927900738
 30
0.0
 40
3.175
 41
0.0
 71
     1
 72
     1
  1

  7
SLDTEXTSTYLE0
 73
     1
 44
1.0
  0
ENDBLK
  5
103
330
101
100
AcDbEntity
  8
0
100
AcDbBlockEnd
  0
BLOCK
  5
112
330
111
100
AcDbEntity
  8
0
100
AcDbBlockBegin
  2
SW_BLOCK_DIMENSION_15
 70
     0
 10
0.0
 20
0.0
 30
0.0
  3
SW_BLOCK_DIMENSION_15
  1

  0
SOLID
  5
114
330
111
100
AcDbEntity
  8
EBENE_1
 62
     0
100
AcDbTrace
 10
16.3971707594
 20
5.1887726877
 30
0.0
 11
15.9230196175
 21
2.1067902658
 31
0.0
 12
16.8713219012
 22
2.1067902658
 32
0.0
 13
16.8713219012
 23
2.1067902658
 33
0.0
  0
LINE
  5
115
330
111
100
AcDbEntity
  8
EBENE_1
 62
     0
100
AcDbLine
 10
3.2925925916
 20
9.671990294
 30
0.0
 11
2.2342592711
 21
9.671990294
 31
0.0
  0
LINE
  5
116
330
111
100
AcDbEntity
  8
EBENE_1
 62
     0
100
AcDbLine
 10
2.2342592711
 20
9.671990294
 30
0.0
 11
2.2342592711
 21
4.9388883635
 31
0.0
  0
LINE
  5
117
330
111
100
AcDbEntity
  8
EBENE_1
 62
     0
100
AcDbLine
 10
2.2342592711
 20
4.9388883635
 30
0.0
 11
3.2925925916
 21
4.9388883635
 31
0.0
  0
LINE
  5
118
330
111
100
AcDbEntity
  8
EBENE_1
 62
     0
100
AcDbLine
 10
11.5240741288
 20
9.671990294
 30
0.0
 11
12.5824074494
 21
9.671990294
 31
0.0
  0
LINE
  5
119
330
111
100
AcDbEntity
  8
EBENE_1
 62
     0
100
AcDbLine
 10
12.5824074494
 20
9.671990294
 30
0.0
 11
12.5824074494
 21
4.9388883635
 31
0.0
  0
LINE
  5
11A
330
111
100
AcDbEntity
  8
EBENE_1
 62
     0
100
AcDbLine
 10
12.5824074494
 20
4.9388883635
 30
0.0
 11
11.5240741288
 21
4.9388883635
 31
0.0
  0
LINE
  5
11B
330
111
100
AcDbEntity
  8
EBENE_1
 62
     0
100
AcDbLine
 10
23.60463321
 20
5.1887726877
 30
0.0
 11
14.8166669533
 21
5.1887726877
 31
0.0
  0
LINE
  5
11C
330
111
100
AcDbEntity
  8
EBENE_1
 62
     0
100
AcDbLine
 10
16.3971707594
 20
-20.2112273123
 30
0.0
 11
16.3971707594
 21
5.1887726877
 31
0.0
  0
MTEXT
  5
11D
330
111
100
AcDbEntity
  8
EBENE_1
 62
     0
100
AcDbMText
 10
1.190625
 20
4.0927900738
 30
0.0
 40
3.175
 41
0.0
 71
     1
 72
     1
  1

  7
SLDTEXTSTYLE0
 73
     1
 44
1.0
  0
MTEXT
  5
11E
330
111
100
AcDbEntity
  8
EBENE_1
 62
     0
100
AcDbMText
 10
3.2925925916
 20
9.0316784373
 30
0.0
 40
3.175
 41
0.0
 71
     1
 72
     1
  1
1,00
  7
SLDTEXTSTYLE0
 73
     1
 44
1.0
  0
MTEXT
  5
11F
330
111
100
AcDbEntity
  8
EBENE_1
 62
     0
100
AcDbMText
 10
2.1166665247
 20
4.0927898409
 30
0.0
 40
3.175
 41
0.0
 71
     1
 72
     1
  1
25,40
  7
SLDTEXTSTYLE0
 73
     1
 44
1.0
  0
MTEXT
  5
120
330
111
100
AcDbEntity
  8
EBENE_1
 62
     0
100
AcDbMText
 10
14.8313658863
 20
4.0927900738
 30
0.0
 40
3.175
 41
0.0
 71
     1
 72
     1
  1

  7
SLDTEXTSTYLE0
 73
     1
 44
1.0
  0
ENDBLK
  5
113
330
111
100
AcDbEntity
  8
0
100
AcDbBlockEnd
  0
BLOCK
  5
123
330
122
100
AcDbEntity
  8
0
100
AcDbBlockBegin
  2
SW_BLOCK_DIMENSION_16
 70
     0
 10
0.0
 20
0.0
 30
0.0
  3
SW_BLOCK_DIMENSION_16
  1

  0
SOLID
  5
125
330
122
100
AcDbEntity
  8
EBENE_1
 62
     0
100
AcDbTrace
 10
16.3971707594
 20
5.1887726877
 30
0.0
 11
15.9230196175
 21
2.1067902658
 31
0.0
 12
16.8713219012
 22
2.1067902658
 32
0.0
 13
16.8713219012
 23
2.1067902658
 33
0.0
  0
LINE
  5
126
330
122
100
AcDbEntity
  8
EBENE_1
 62
     0
100
AcDbLine
 10
3.2925925916
 20
9.671990294
 30
0.0
 11
2.2342592711
 21
9.671990294
 31
0.0
  0
LINE
  5
127
330
122
100
AcDbEntity
  8
EBENE_1
 62
     0
100
AcDbLine
 10
2.2342592711
 20
9.671990294
 30
0.0
 11
2.2342592711
 21
4.9388883635
 31
0.0
  0
LINE
  5
128
330
122
100
AcDbEntity
  8
EBENE_1
 62
     0
100
AcDbLine
 10
2.2342592711
 20
4.9388883635
 30
0.0
 11
3.2925925916
 21
4.9388883635
 31
0.0
  0
LINE
  5
129
330
122
100
AcDbEntity
  8
EBENE_1
 62
     0
100
AcDbLine
 10
11.5240741288
 20
9.671990294
 30
0.0
 11
12.5824074494
 21
9.671990294
 31
0.0
  0
LINE
  5
12A
330
122
100
AcDbEntity
  8
EBENE_1
 62
     0
100
AcDbLine
 10
12.5824074494
 20
9.671990294
 30
0.0
 11
12.5824074494
 21
4.9388883635
 31
0.0
  0
LINE
  5
12B
330
122
100
AcDbEntity
  8
EBENE_1
 62
     0
100
AcDbLine
 10
12.5824074494
 20
4.9388883635
 30
0.0
 11
11.5240741288
 21
4.9388883635
 31
0.0
  0
LINE
  5
12C
330
122
100
AcDbEntity
  8
EBENE_1
 62
     0
100
AcDbLine
 10
23.60463321
 20
5.1887726877
 30
0.0
 11
14.8166669533
 21
5.1887726877
 31
0.0
  0
LINE
  5
12D
330
122
100
AcDbEntity
  8
EBENE_1
 62
     0
100
AcDbLine
 10
16.3971707594
 20
-20.2112273123
 30
0.0
 11
16.3971707594
 21
5.1887726877
 31
0.0
  0
MTEXT
  5
12E
330
122
100
AcDbEntity
  8
EBENE_1
 62
     0
100
AcDbMText
 10
1.190625
 20
4.0927900738
 30
0.0
 40
3.175
 41
0.0
 71
     1
 72
     1
  1

  7
SLDTEXTSTYLE0
 73
     1
 44
1.0
  0
MTEXT
  5
12F
330
122
100
AcDbEntity
  8
EBENE_1
 62
     0
100
AcDbMText
 10
3.2925925916
 20
9.0316784373
 30
0.0
 40
3.175
 41
0.0
 71
     1
 72
     1
  1
2,00
  7
SLDTEXTSTYLE0
 73
     1
 44
1.0
  0
MTEXT
  5
130
330
122
100
AcDbEntity
  8
EBENE_1
 62
     0
100
AcDbMText
 10
2.1166665247
 20
4.0927898409
 30
0.0
 40
3.175
 41
0.0
 71
     1
 72
     1
  1
50,80
  7
SLDTEXTSTYLE0
 73
     1
 44
1.0
  0
MTEXT
  5
131
330
122
100
AcDbEntity
  8
EBENE_1
 62
     0
100
AcDbMText
 10
14.8313658863
 20
4.0927900738
 30
0.0
 40
3.175
 41
0.0
 71
     1
 72
     1
  1

  7
SLDTEXTSTYLE0
 73
     1
 44
1.0
  0
ENDBLK
  5
124
330
122
100
AcDbEntity
  8
0
100
AcDbBlockEnd
  0
BLOCK
  5
134
330
133
100
AcDbEntity
  8
0
100
AcDbBlockBegin
  2
SW_BLOCK_DIMENSION_17
 70
     0
 10
0.0
 20
0.0
 30
0.0
  3
SW_BLOCK_DIMENSION_17
  1

  0
SOLID
  5
136
330
133
100
AcDbEntity
  8
EBENE_1
 62
     0
100
AcDbTrace
 10
16.3971707594
 20
5.1887726877
 30
0.0
 11
15.9230196175
 21
2.1067902658
 31
0.0
 12
16.8713219012
 22
2.1067902658
 32
0.0
 13
16.8713219012
 23
2.1067902658
 33
0.0
  0
LINE
  5
137
330
133
100
AcDbEntity
  8
EBENE_1
 62
     0
100
AcDbLine
 10
3.2925925916
 20
9.671990294
 30
0.0
 11
2.2342592711
 21
9.671990294
 31
0.0
  0
LINE
  5
138
330
133
100
AcDbEntity
  8
EBENE_1
 62
     0
100
AcDbLine
 10
2.2342592711
 20
9.671990294
 30
0.0
 11
2.2342592711
 21
4.9388883635
 31
0.0
  0
LINE
  5
139
330
133
100
AcDbEntity
  8
EBENE_1
 62
     0
100
AcDbLine
 10
2.2342592711
 20
4.9388883635
 30
0.0
 11
3.2925925916
 21
4.9388883635
 31
0.0
  0
LINE
  5
13A
330
133
100
AcDbEntity
  8
EBENE_1
 62
     0
100
AcDbLine
 10
11.5240741288
 20
9.671990294
 30
0.0
 11
12.5824074494
 21
9.671990294
 31
0.0
  0
LINE
  5
13B
330
133
100
AcDbEntity
  8
EBENE_1
 62
     0
100
AcDbLine
 10
12.5824074494
 20
9.671990294
 30
0.0
 11
12.5824074494
 21
4.9388883635
 31
0.0
  0
LINE
  5
13C
330
133
100
AcDbEntity
  8
EBENE_1
 62
     0
100
AcDbLine
 10
12.5824074494
 20
4.9388883635
 30
0.0
 11
11.5240741288
 21
4.9388883635
 31
0.0
  0
LINE
  5
13D
330
133
100
AcDbEntity
  8
EBENE_1
 62
     0
100
AcDbLine
 10
23.60463321
 20
5.1887726877
 30
0.0
 11
14.8166669533
 21
5.1887726877
 31
0.0
  0
LINE
  5
13E
330
133
100
AcDbEntity
  8
EBENE_1
 62
     0
100
AcDbLine
 10
16.3971707594
 20
-20.2112273123
 30
0.0
 11
16.3971707594
 21
5.1887726877
 31
0.0
  0
MTEXT
  5
13F
330
133
100
AcDbEntity
  8
EBENE_1
 62
     0
100
AcDbMText
 10
1.190625
 20
4.0927900738
 30
0.0
 40
3.175
 41
0.0
 71
     1
 72
     1
  1

  7
SLDTEXTSTYLE0
 73
     1
 44
1.0
  0
MTEXT
  5
140
330
133
100
AcDbEntity
  8
EBENE_1
 62
     0
100
AcDbMText
 10
3.2925925916
 20
9.0316784373
 30
0.0
 40
3.175
 41
0.0
 71
     1
 72
     1
  1
3,00
  7
SLDTEXTSTYLE0
 73
     1
 44
1.0
  0
MTEXT
  5
141
330
133
100
AcDbEntity
  8
EBENE_1
 62
     0
100
AcDbMText
 10
2.1166665247
 20
4.0927898409
 30
0.0
 40
3.175
 41
0.0
 71
     1
 72
     1
  1
76,20
  7
SLDTEXTSTYLE0
 73
     1
 44
1.0
  0
MTEXT
  5
142
330
133
100
AcDbEntity
  8
EBENE_1
 62
     0
100
AcDbMText
 10
14.8313658863
 20
4.0927900738
 30
0.0
 40
3.175
 41
0.0
 71
     1
 72
     1
  1

  7
SLDTEXTSTYLE0
 73
     1
 44
1.0
  0
ENDBLK
  5
135
330
133
100
AcDbEntity
  8
0
100
AcDbBlockEnd
  0
BLOCK
  5
145
330
144
100
AcDbEntity
  8
0
100
AcDbBlockBegin
  2
SW_BLOCK_DIMENSION_18
 70
     0
 10
0.0
 20
0.0
 30
0.0
  3
SW_BLOCK_DIMENSION_18
  1

  0
SOLID
  5
147
330
144
100
AcDbEntity
  8
EBENE_1
 62
     0
100
AcDbTrace
 10
16.8675417449
 20
5.1887726877
 30
0.0
 11
16.3933906031
 21
2.1067902658
 31
0.0
 12
17.3416928867
 22
2.1067902658
 32
0.0
 13
17.3416928867
 23
2.1067902658
 33
0.0
  0
LINE
  5
148
330
144
100
AcDbEntity
  8
EBENE_1
 62
     0
100
AcDbLine
 10
3.5277780844
 20
9.671990294
 30
0.0
 11
2.4694447638
 21
9.671990294
 31
0.0
  0
LINE
  5
149
330
144
100
AcDbEntity
  8
EBENE_1
 62
     0
100
AcDbLine
 10
2.4694447638
 20
9.671990294
 30
0.0
 11
2.4694447638
 21
4.9388883635
 31
0.0
  0
LINE
  5
14A
330
144
100
AcDbEntity
  8
EBENE_1
 62
     0
100
AcDbLine
 10
2.4694447638
 20
4.9388883635
 30
0.0
 11
3.5277780844
 21
4.9388883635
 31
0.0
  0
LINE
  5
14B
330
144
100
AcDbEntity
  8
EBENE_1
 62
     0
100
AcDbLine
 10
11.7592596216
 20
9.671990294
 30
0.0
 11
12.8175929422
 21
9.671990294
 31
0.0
  0
LINE
  5
14C
330
144
100
AcDbEntity
  8
EBENE_1
 62
     0
100
AcDbLine
 10
12.8175929422
 20
9.671990294
 30
0.0
 11
12.8175929422
 21
4.9388883635
 31
0.0
  0
LINE
  5
14D
330
144
100
AcDbEntity
  8
EBENE_1
 62
     0
100
AcDbLine
 10
12.8175929422
 20
4.9388883635
 30
0.0
 11
11.7592596216
 21
4.9388883635
 31
0.0
  0
LINE
  5
14E
330
144
100
AcDbEntity
  8
EBENE_1
 62
     0
100
AcDbLine
 10
24.0750041956
 20
5.1887726877
 30
0.0
 11
15.2870379388
 21
5.1887726877
 31
0.0
  0
LINE
  5
14F
330
144
100
AcDbEntity
  8
EBENE_1
 62
     0
100
AcDbLine
 10
16.8675417449
 20
-20.2112273123
 30
0.0
 11
16.8675417449
 21
5.1887726877
 31
0.0
  0
MTEXT
  5
150
330
144
100
AcDbEntity
  8
EBENE_1
 62
     0
100
AcDbMText
 10
1.190625
 20
4.0927900738
 30
0.0
 40
3.175
 41
0.0
 71
     1
 72
     1
  1

  7
SLDTEXTSTYLE0
 73
     1
 44
1.0
  0
MTEXT
  5
151
330
144
100
AcDbEntity
  8
EBENE_1
 62
     0
100
AcDbMText
 10
3.5277780844
 20
9.0316784373
 30
0.0
 40
3.175
 41
0.0
 71
     1
 72
     1
  1
4,00
  7
SLDTEXTSTYLE0
 73
     1
 44
1.0
  0
MTEXT
  5
152
330
144
100
AcDbEntity
  8
EBENE_1
 62
     0
100
AcDbMText
 10
1.1759259505
 20
4.0927898409
 30
0.0
 40
3.175
 41
0.0
 71
     1
 72
     1
  1
101,60
  7
SLDTEXTSTYLE0
 73
     1
 44
1.0
  0
MTEXT
  5
153
330
144
100
AcDbEntity
  8
EBENE_1
 62
     0
100
AcDbMText
 10
15.3017368719
 20
4.0927900738
 30
0.0
 40
3.175
 41
0.0
 71
     1
 72
     1
  1

  7
SLDTEXTSTYLE0
 73
     1
 44
1.0
  0
ENDBLK
  5
146
330
144
100
AcDbEntity
  8
0
100
AcDbBlockEnd
  0
BLOCK
  5
156
330
155
100
AcDbEntity
  8
0
100
AcDbBlockBegin
  2
SW_BLOCK_DIMENSION_19
 70
     0
 10
0.0
 20
0.0
 30
0.0
  3
SW_BLOCK_DIMENSION_19
  1

  0
SOLID
  5
158
330
155
100
AcDbEntity
  8
EBENE_1
 62
     0
100
AcDbTrace
 10
16.3971707594
 20
5.1887726877
 30
0.0
 11
15.9230196175
 21
2.1067902658
 31
0.0
 12
16.8713219012
 22
2.1067902658
 32
0.0
 13
16.8713219012
 23
2.1067902658
 33
0.0
  0
LINE
  5
159
330
155
100
AcDbEntity
  8
EBENE_1
 62
     0
100
AcDbLine
 10
3.2925925916
 20
9.671990294
 30
0.0
 11
2.2342592711
 21
9.671990294
 31
0.0
  0
LINE
  5
15A
330
155
100
AcDbEntity
  8
EBENE_1
 62
     0
100
AcDbLine
 10
2.2342592711
 20
9.671990294
 30
0.0
 11
2.2342592711
 21
4.9388883635
 31
0.0
  0
LINE
  5
15B
330
155
100
AcDbEntity
  8
EBENE_1
 62
     0
100
AcDbLine
 10
2.2342592711
 20
4.9388883635
 30
0.0
 11
3.2925925916
 21
4.9388883635
 31
0.0
  0
LINE
  5
15C
330
155
100
AcDbEntity
  8
EBENE_1
 62
     0
100
AcDbLine
 10
11.5240741288
 20
9.671990294
 30
0.0
 11
12.5824074494
 21
9.671990294
 31
0.0
  0
LINE
  5
15D
330
155
100
AcDbEntity
  8
EBENE_1
 62
     0
100
AcDbLine
 10
12.5824074494
 20
9.671990294
 30
0.0
 11
12.5824074494
 21
4.9388883635
 31
0.0
  0
LINE
  5
15E
330
155
100
AcDbEntity
  8
EBENE_1
 62
     0
100
AcDbLine
 10
12.5824074494
 20
4.9388883635
 30
0.0
 11
11.5240741288
 21
4.9388883635
 31
0.0
  0
LINE
  5
15F
330
155
100
AcDbEntity
  8
EBENE_1
 62
     0
100
AcDbLine
 10
23.60463321
 20
5.1887726877
 30
0.0
 11
14.8166669533
 21
5.1887726877
 31
0.0
  0
LINE
  5
160
330
155
100
AcDbEntity
  8
EBENE_1
 62
     0
100
AcDbLine
 10
16.3971707594
 20
-20.2112273123
 30
0.0
 11
16.3971707594
 21
5.1887726877
 31
0.0
  0
MTEXT
  5
161
330
155
100
AcDbEntity
  8
EBENE_1
 62
     0
100
AcDbMText
 10
1.190625
 20
4.0927900738
 30
0.0
 40
3.175
 41
0.0
 71
     1
 72
     1
  1

  7
SLDTEXTSTYLE0
 73
     1
 44
1.0
  0
MTEXT
  5
162
330
155
100
AcDbEntity
  8
EBENE_1
 62
     0
100
AcDbMText
 10
3.2925925916
 20
9.0316784373
 30
0.0
 40
3.175
 41
0.0
 71
     1
 72
     1
  1
5,00
  7
SLDTEXTSTYLE0
 73
     1
 44
1.0
  0
MTEXT
  5
163
330
155
100
AcDbEntity
  8
EBENE_1
 62
     0
100
AcDbMText
 10
3.8805556251
 20
4.0927898409
 30
0.0
 40
3.175
 41
0.0
 71
     1
 72
     1
  1
127
  7
SLDTEXTSTYLE0
 73
     1
 44
1.0
  0
MTEXT
  5
164
330
155
100
AcDbEntity
  8
EBENE_1
 62
     0
100
AcDbMText
 10
14.8313658863
 20
4.0927900738
 30
0.0
 40
3.175
 41
0.0
 71
     1
 72
     1
  1

  7
SLDTEXTSTYLE0
 73
     1
 44
1.0
  0
ENDBLK
  5
157
330
155
100
AcDbEntity
  8
0
100
AcDbBlockEnd
  0
BLOCK
  5
167
330
166
100
AcDbEntity
  8
0
100
AcDbBlockBegin
  2
SW_NOTE_0
 70
     0
 10
0.0
 20
0.0
 30
0.0
  3
SW_NOTE_0
  1

  0
MTEXT
  5
169
330
166
100
AcDbEntity
  8
EBENE_1
 62
     0
100
AcDbMText
 10
6.7138020833
 20
4.7749217527
 30
0.0
 40
3.7041666667
 41
0.0
 71
     2
 72
     1
  1
(Inch)
  7
SLDTEXTSTYLE0
 73
     1
 44
1.0
  0
MTEXT
  5
16A
330
166
100
AcDbEntity
  8
EBENE_1
 62
     0
100
AcDbMText
 10
6.7309508326
 20
-1.1639672404
 30
0.0
 40
3.7041666667
 41
0.0
 71
     2
 72
     1
  1
mm
  7
SLDTEXTSTYLE0
 73
     1
 44
1.0
  0
ENDBLK
  5
168
330
166
100
AcDbEntity
  8
0
100
AcDbBlockEnd
  0
BLOCK
  5
172
330
171
100
AcDbEntity
  8
0
100
AcDbBlockBegin
  2
SW_NOTE_1
 70
     0
 10
0.0
 20
0.0
 30
0.0
  3
SW_NOTE_1
  1

  0
MTEXT
  5
174
330
171
100
AcDbEntity
  8
0
  6
Continuous
 62
     0
370
     0
100
AcDbMText
 10
19.893359375
 20
4.0927900738
 30
0.0
 40
3.175
 41
0.0
 71
     2
 72
     1
  1
ABP-Beyerle GmbH
  7
SLDTEXTSTYLE0
 73
     1
 44
1.0
  0
MTEXT
  5
175
330
171
100
AcDbEntity
  8
0
  6
Continuous
 62
     0
370
     0
100
AcDbMText
 10
20.6558884293
 20
-0.1405432084
 30
0.0
 40
3.175
 41
0.0
 71
     2
 72
     1
  1
Im Schollengarten 24b, 76646 Bruchsal
  7
SLDTEXTSTYLE0
 73
     1
 44
1.0
  0
MTEXT
  5
176
330
171
100
AcDbEntity
  8
0
  6
Continuous
 62
     0
370
     0
100
AcDbMText
 10
20.7863491923
 20
-4.3738764906
 30
0.0
 40
3.175
 41
0.0
 71
     2
 72
     1
  1
Tel. +49 (0)7251-9127-0, Fax. +49 (0)7251-9127-29
  7
SLDTEXTSTYLE0
 73
     1
 44
1.0
  0
MTEXT
  5
177
330
171
100
AcDbEntity
  8
0
  6
Continuous
 62
     0
370
     0
100
AcDbMText
 10
20.8392552227
 20
-8.6072097727
 30
0.0
 40
3.175
 41
0.0
 71
     2
 72
     1
  1
info@abp-beyerle.de, www.abp-beyerle.de
  7
SLDTEXTSTYLE0
 73
     1
 44
1.0
  0
ENDBLK
  5
173
330
171
100
AcDbEntity
  8
0
100
AcDbBlockEnd
  0
ENDSEC
  0
SECTION
  2
ENTITIES
  0
INSERT
  5
16D
330
1F
100
AcDbEntity
  8
EBENE_1
100
AcDbBlockReference
  2
Block1
 10
19.561342692
 20
-6.9223244521
 30
0.0
  0
MTEXT
  5
16F
330
1F
100
AcDbEntity
  8
0
  6
Continuous
 62
     7
370
     0
100
AcDbMText
 10
402.5
 20
14.7189135832
 30
0.0
 40
6.35
 41
0.0
 71
     1
 72
     1
  1
1:1
  7
SLDTEXTSTYLE1
 73
     1
 44
1.0
  0
MTEXT
  5
170
330
1F
100
AcDbEntity
  8
0
  6
Continuous
 62
     7
370
     0
100
AcDbMText
 10
168.4090458961
 20
14.7189131175
 30
0.0
 40
6.35
 41
0.0
 71
     1
 72
     1
  1
USU213DB
  7
SLDTEXTSTYLE1
 73
     1
 44
1.0
  0
INSERT
  5
178
330
1F
100
AcDbEntity
  8
0
  6
Continuous
 62
     7
370
     0
100
AcDbBlockReference
  2
SW_NOTE_1
 10
35.4202146835
 20
20.1681939512
 30
0.0
  0
CIRCLE
  5
179
330
1F
100
AcDbEntity
  8
0
  6
Continuous
 62
     7
370
    15
100
AcDbCircle
 10
179.6754285714
 20
197.2425714286
 30
0.0
 40
6.44999999999999
  0
CIRCLE
  5
17A
330
1F
100
AcDbEntity
  8
0
  6
Continuous
 62
     7
370
    15
100
AcDbCircle
 10
179.6754285714
 20
197.2425714286
 30
0.0
 40
7.450000000000007
  0
LINE
  5
17B
330
1F
100
AcDbEntity
  8
0
  6
Continuous
 62
     7
370
    15
100
AcDbLine
 10
182.4591672563
 20
198.0068518072
 30
0.0
 11
180.4054116904
 21
200.0355000364
 31
0.0
  0
LINE
  5
17C
330
1F
100
AcDbEntity
  8
0
  6
Continuous
 62
     7
370
    15
100
AcDbLine
 10
180.4054116904
 20
200.0355000364
 30
0.0
 11
177.6216730055
 21
199.2712196578
 31
0.0
  0
LINE
  5
17D
330
1F
100
AcDbEntity
  8
0
  6
Continuous
 62
     7
370
    15
100
AcDbLine
 10
177.6216730055
 20
199.2712196578
 30
0.0
 11
176.8916898866
 21
196.47829105
 31
0.0
  0
LINE
  5
17E
330
1F
100
AcDbEntity
  8
0
  6
Continuous
 62
     7
370
    15
100
AcDbLine
 10
176.8916898866
 20
196.47829105
 30
0.0
 11
178.9454454525
 21
194.4496428207
 31
0.0
  0
LINE
  5
17F
330
1F
100
AcDbEntity
  8
0
  6
Continuous
 62
     7
370
    15
100
AcDbLine
 10
178.9454454525
 20
194.4496428207
 30
0.0
 11
181.7291841373
 21
195.2139231993
 31
0.0
  0
LINE
  5
180
330
1F
100
AcDbEntity
  8
0
  6
Continuous
 62
     7
370
    15
100
AcDbLine
 10
181.7291841373
 20
195.2139231993
 30
0.0
 11
182.4591672563
 21
198.0068518072
 31
0.0
  0
SPLINE
  5
181
330
1F
100
AcDbEntity
  8
0
  6
Continuous
 62
     7
370
    15
100
AcDbSpline
210
0.0
220
0.0
230
1.0
 70
    11
 71
     3
 72
    73
 73
    69
 74
     0
 42
0.000000001
 43
0.00000001
 40
0.0
 40
0.0
 40
0.0
 40
0.0
 40
0.0116850651152686
 40
0.0354943193199045
 40
0.0476443152879582
 40
0.0593277487215402
 40
0.083050120674916
 40
0.0951024353594214
 40
0.10770289390475
 40
0.1332500679811516
 40
0.1462151727434366
 40
0.1602864878243033
 40
0.1744585222760718
 40
0.1889739110331067
 40
0.2036242503678241
 40
0.2143091556242094
 40
0.2360196663188066
 40
0.2470811720207295
 40
0.2577680392202145
 40
0.2795242351993354
 40
0.2906130476744173
 40
0.3012212370837696
 40
0.3227119067581823
 40
0.3336011777440367
 40
0.3460660500670775
 40
0.3713260929396387
 40
0.3841398284421565
 40
0.3982635624714261
 40
0.4124905521289806
 40
0.4270655975740277
 40
0.4417731402517385
 40
0.4549483607505416
 40
0.4818820567767949
 40
0.4957014456954463
 40
0.5071311194092036
 40
0.5304040459684073
 40
0.542272684990748
 40
0.5534676775129495
 40
0.5761806712939276
 40
0.5877111349384021
 40
0.6000851720191266
 40
0.6251706204085636
 40
0.6378980082574732
 40
0.651830168590368
 40
0.6658569580804163
 40
0.6801992249897646
 40
0.6946625300139883
 40
0.7055900913967099
 40
0.7277855663423574
 40
0.739092001725962
 40
0.7500222344065425
 40
0.772299044847775
 40
0.7836711773172312
 40
0.7941401035406679
 40
0.815358942883725
 40
0.8261158758533367
 40
0.8382048739409528
 40
0.8626929552428968
 40
0.875106737153161
 40
0.889106882000475
 40
0.9032041483049973
 40
0.9176242295039043
 40
0.9321656926197175
 40
0.9456496922687425
 40
0.9594501012336186
 40
0.9732490916386429
 40
0.9873972231792795
 40
0.9999999999999999
 40
0.9999999999999999
 40
0.9999999999999999
 40
0.9999999999999999
 10
172.1816324689725
 20
197.5475631904506
 30
0.0
 10
172.1782530394713
 20
197.3590897870205
 30
0.0
 10
172.1679877522309
 20
196.7865867586962
 30
0.0
 10
172.2588427862263
 20
196.0213390323154
 30
0.0
 10
172.4289785484613
 20
195.2809002970366
 30
0.0
 10
172.6536287474277
 20
194.5615839326571
 30
0.0
 10
172.9543600650268
 20
193.8783410823827
 30
0.0
 10
173.3308965990845
 20
193.2293800874091
 30
0.0
 10
173.7691264056809
 20
192.5912994354496
 30
0.0
 10
174.2868296749153
 20
192.0001476140969
 30
0.0
 10
174.8846257799989
 20
191.4609716142408
 30
0.0
 10
175.3879681458199
 20
191.0773968255903
 30
0.0
 10
175.9459128061109
 20
190.7242219385043
 30
0.0
 10
176.545950661276
 20
190.4152243189509
 30
0.0
 10
177.1274389264844
 20
190.1800660127296
 30
0.0
 10
177.8395817416266
 20
189.9564814149782
 30
0.0
 10
178.5252917090744
 20
189.8166412923687
 30
0.0
 10
179.2231571491091
 20
189.7500658365268
 30
0.0
 10
179.9251737111524
 20
189.7324553005755
 30
0.0
 10
180.6261538107517
 20
189.7886759791518
 30
0.0
 10
181.3066717677923
 20
189.9160572989841
 30
0.0
 10
181.9677751163516
 20
190.0875047015563
 30
0.0
 10
182.5995401672125
 20
190.321905885795
 30
0.0
 10
183.2225925558427
 20
190.6270576581495
 30
0.0
 10
183.8690162135582
 20
191.0035362537747
 30
0.0
 10
184.4900351149113
 20
191.4690449795857
 30
0.0
 10
185.0699037648566
 20
192.0197622516898
 30
0.0
 10
185.4915299109527
 20
192.4921728285805
 30
0.0
 10
185.8888932362231
 20
193.0244232360693
 30
0.0
 10
186.2447415364959
 20
193.6022450439015
 30
0.0
 10
186.5416094162907
 20
194.2010169244792
 30
0.0
 10
186.8579161013801
 20
195.0109323483028
 30
0.0
 10
187.0687271977437
 20
195.8550082133765
 30
0.0
 10
187.1634932197594
 20
196.6916833392566
 30
0.0
 10
187.1881758493436
 20
197.4745335463548
 30
0.0
 10
187.1273210552442
 20
198.2255650533513
 30
0.0
 10
186.9847689645892
 20
198.9527553829994
 30
0.0
 10
186.7928472721414
 20
199.6546246440532
 30
0.0
 10
186.5301938944552
 20
200.3222577680405
 30
0.0
 10
186.1940431933774
 20
200.9655791045016
 30
0.0
 10
185.7942367563913
 20
201.6096026574324
 30
0.0
 10
185.3133836478052
 20
202.2148902424429
 30
0.0
 10
184.752545081105
 20
202.7740959781239
 30
0.0
 10
184.2765914656036
 20
203.1769928457477
 30
0.0
 10
183.7456915976232
 20
203.5533977037858
 30
0.0
 10
183.1730200214568
 20
203.8884333544684
 30
0.0
 10
182.6107947001244
 20
204.1529689612624
 30
0.0
 10
181.9086899307285
 20
204.4172979280806
 30
0.0
 10
181.2199384415842
 20
204.59716951419
 30
0.0
 10
180.5125764144065
 20
204.7021499490981
 30
0.0
 10
179.7963039957905
 20
204.7565668484939
 30
0.0
 10
179.0743366342517
 20
204.7336110125413
 30
0.0
 10
178.3751834187353
 20
204.6351467209615
 30
0.0
 10
177.7058002051657
 20
204.4929069670894
 30
0.0
 10
177.0688354162302
 20
204.2887523969962
 30
0.0
 10
176.4407774614677
 20
204.0161178736456
 30
0.0
 10
175.7925655485499
 20
203.6784796627195
 30
0.0
 10
175.1678375862356
 20
203.2575103265092
 30
0.0
 10
174.5748050015946
 20
202.7522377287564
 30
0.0
 10
174.1357953207615
 20
202.3123108194717
 30
0.0
 10
173.7146849374182
 20
201.8104088847971
 30
0.0
 10
173.331951297017
 20
201.2628741138633
 30
0.0
 10
173.0020052127889
 20
200.6865388330079
 30
0.0
 10
172.7257534188902
 20
200.0872111385958
 30
0.0
 10
172.5042905716457
 20
199.4721414501817
 30
0.0
 10
172.3346765912044
 20
198.8252752521716
 30
0.0
 10
172.222487227959
 20
198.1812684780945
 30
0.0
 10
172.1947159554919
 20
197.7505034303121
 30
0.0
 10
172.1816324689725
 20
197.5475631904506
 30
0.0
  0
CIRCLE
  5
182
330
1F
100
AcDbEntity
  8
0
  6
Continuous
 62
     7
370
    15
100
AcDbCircle
 10
179.6754285714
 20
197.2425714286
 30
0.0
 40
14.9999999999996
  0
CIRCLE
  5
183
330
1F
100
AcDbEntity
  8
0
  6
Continuous
 62
     7
370
    15
100
AcDbCircle
 10
179.6754285714
 20
197.2425714286
 30
0.0
 40
30.0
  0
CIRCLE
  5
184
330
1F
100
AcDbEntity
  8
0
  6
Continuous
 62
     7
370
    15
100
AcDbCircle
 10
179.6754285714
 20
197.2425714286
 30
0.0
 40
7.550000000000011
  0
ARC
  5
185
330
1F
100
AcDbEntity
  8
0
  6
Continuous
 62
     7
370
    15
100
AcDbCircle
 10
73.4131428571
 20
193.7925714286
 30
0.0
 40
4.0
100
AcDbArc
 50
270.0
 51
0.0
  0
ARC
  5
186
330
1F
100
AcDbEntity
  8
0
  6
Continuous
 62
     7
370
    15
100
AcDbCircle
 10
73.4131428571
 20
200.6925714286
 30
0.0
 40
4.0
100
AcDbArc
 50
0.0
 51
90.0
  0
LINE
  5
187
330
1F
100
AcDbEntity
  8
0
  6
Continuous
 62
     7
370
    15
100
AcDbLine
 10
73.4131428571
 20
204.6925714286
 30
0.0
 11
63.6131428571
 21
204.6925714286
 31
0.0
  0
LINE
  5
188
330
1F
100
AcDbEntity
  8
0
  6
Continuous
 62
     7
370
    15
100
AcDbLine
 10
63.6131428571
 20
189.7925714286
 30
0.0
 11
73.4131428571
 21
189.7925714286
 31
0.0
  0
LINE
  5
189
330
1F
100
AcDbEntity
  8
0
  6
Continuous
 62
     7
370
    15
100
AcDbLine
 10
63.6131428571
 20
204.6925714286
 30
0.0
 11
63.4131428571
 21
204.4925714286
 31
0.0
  0
LINE
  5
18A
330
1F
100
AcDbEntity
  8
0
  6
Continuous
 62
     7
370
    15
100
AcDbLine
 10
63.4131428571
 20
189.9925714286
 30
0.0
 11
63.6131428571
 21
189.7925714286
 31
0.0
  0
LINE
  5
18B
330
1F
100
AcDbEntity
  8
0
  6
Continuous
 62
     7
370
    15
100
AcDbLine
 10
63.2131428571
 20
189.7925714286
 30
0.0
 11
63.4131428571
 21
189.9925714286
 31
0.0
  0
LINE
  5
18C
330
1F
100
AcDbEntity
  8
0
  6
Continuous
 62
     7
370
    15
100
AcDbLine
 10
63.4131428571
 20
204.4925714286
 30
0.0
 11
63.2131428571
 21
204.6925714286
 31
0.0
  0
LINE
  5
18D
330
1F
100
AcDbEntity
  8
0
  6
Continuous
 62
     7
370
    15
100
AcDbLine
 10
63.2131428571
 20
204.6925714286
 30
0.0
 11
54.4131428571
 21
204.6925714286
 31
0.0
  0
LINE
  5
18E
330
1F
100
AcDbEntity
  8
0
  6
Continuous
 62
     7
370
    15
100
AcDbLine
 10
54.4131428571
 20
189.7925714286
 30
0.0
 11
63.2131428571
 21
189.7925714286
 31
0.0
  0
LINE
  5
18F
330
1F
100
AcDbEntity
  8
0
  6
Continuous
 62
     7
370
    15
100
AcDbLine
 10
54.4131428571
 20
204.6925714286
 30
0.0
 11
53.4131428571
 21
203.6925714286
 31
0.0
  0
LINE
  5
190
330
1F
100
AcDbEntity
  8
0
  6
Continuous
 62
     7
370
    15
100
AcDbLine
 10
53.4131428571
 20
190.7925714286
 30
0.0
 11
54.4131428571
 21
189.7925714286
 31
0.0
  0
LINE
  5
191
330
1F
100
AcDbEntity
  8
0
  6
Continuous
 62
     7
370
    15
100
AcDbLine
 10
97.4131428571
 20
204.7425714286
 30
0.0
 11
76.9293596385
 21
204.7425714286
 31
0.0
  0
LINE
  5
192
330
1F
100
AcDbEntity
  8
0
  6
Continuous
 62
     7
370
    15
100
AcDbLine
 10
76.9193730302
 20
189.7425714286
 30
0.0
 11
97.4131428571
 21
189.7425714286
 31
0.0
  0
LINE
  5
193
330
1F
100
AcDbEntity
  8
0
  6
Continuous
 62
     7
370
    15
100
AcDbLine
 10
101.4131428571
 20
227.2425714286
 30
0.0
 11
99.4131428571
 21
227.2425714286
 31
0.0
  0
LINE
  5
194
330
1F
100
AcDbEntity
  8
0
  6
Continuous
 62
     7
370
    15
100
AcDbLine
 10
99.4131428571
 20
167.2425714286
 30
0.0
 11
101.4131428571
 21
167.2425714286
 31
0.0
  0
LINE
  5
195
330
1F
100
AcDbEntity
  8
0
  6
Continuous
 62
     7
370
    15
100
AcDbLine
 10
99.4131428571
 20
227.2425714286
 30
0.0
 11
97.4131428571
 21
212.2425714286
 31
0.0
  0
LINE
  5
196
330
1F
100
AcDbEntity
  8
0
  6
Continuous
 62
     7
370
    15
100
AcDbLine
 10
97.4131428571
 20
182.2425714286
 30
0.0
 11
99.4131428571
 21
167.2425714286
 31
0.0
  0
LINE
  5
197
330
1F
100
AcDbEntity
  8
0
  6
Continuous
 62
     7
370
    15
100
AcDbLine
 10
77.4131428571
 20
196.3412795617
 30
0.0
 11
77.4131428571
 21
193.7925714286
 31
0.0
  0
LINE
  5
198
330
1F
100
AcDbEntity
  8
0
  6
Continuous
 62
     7
370
    15
100
AcDbLine
 10
77.4131428571
 20
200.6925714286
 30
0.0
 11
77.4131428571
 21
196.3412795617
 31
0.0
  0
LINE
  5
199
330
1F
100
AcDbEntity
  8
0
  6
Continuous
 62
     7
370
    15
100
AcDbLine
 10
63.6131428571
 20
195.2963034842
 30
0.0
 11
63.6131428571
 21
204.6925714286
 31
0.0
  0
LINE
  5
19A
330
1F
100
AcDbEntity
  8
0
  6
Continuous
 62
     7
370
    15
100
AcDbLine
 10
63.6131428571
 20
189.7925714286
 30
0.0
 11
63.6131428571
 21
195.2963034842
 31
0.0
  0
LINE
  5
19B
330
1F
100
AcDbEntity
  8
0
  6
Continuous
 62
     7
370
    15
100
AcDbLine
 10
63.4131428571
 20
195.3485522881
 30
0.0
 11
63.4131428571
 21
204.4925714286
 31
0.0
  0
LINE
  5
19C
330
1F
100
AcDbEntity
  8
0
  6
Continuous
 62
     7
370
    15
100
AcDbLine
 10
63.4131428571
 20
189.9925714286
 30
0.0
 11
63.4131428571
 21
195.3485522881
 31
0.0
  0
LINE
  5
19D
330
1F
100
AcDbEntity
  8
0
  6
Continuous
 62
     7
370
    15
100
AcDbLine
 10
63.2131428571
 20
195.2963034842
 30
0.0
 11
63.2131428571
 21
204.6925714286
 31
0.0
  0
LINE
  5
19E
330
1F
100
AcDbEntity
  8
0
  6
Continuous
 62
     7
370
    15
100
AcDbLine
 10
63.2131428571
 20
189.7925714286
 30
0.0
 11
63.2131428571
 21
195.2963034842
 31
0.0
  0
LINE
  5
19F
330
1F
100
AcDbEntity
  8
0
  6
Continuous
 62
     7
370
    15
100
AcDbLine
 10
54.4131428571
 20
195.2963034842
 30
0.0
 11
54.4131428571
 21
189.7925714286
 31
0.0
  0
LINE
  5
1A0
330
1F
100
AcDbEntity
  8
0
  6
Continuous
 62
     7
370
    15
100
AcDbLine
 10
54.4131428571
 20
204.6925714286
 30
0.0
 11
54.4131428571
 21
195.2963034842
 31
0.0
  0
LINE
  5
1A1
330
1F
100
AcDbEntity
  8
0
  6
Continuous
 62
     7
370
    15
100
AcDbLine
 10
53.4131428571
 20
195.5575475036
 30
0.0
 11
53.4131428571
 21
203.6925714286
 31
0.0
  0
LINE
  5
1A2
330
1F
100
AcDbEntity
  8
0
  6
Continuous
 62
     7
370
    15
100
AcDbLine
 10
53.4131428571
 20
190.7925714286
 30
0.0
 11
53.4131428571
 21
195.5575475036
 31
0.0
  0
SPLINE
  5
1A3
330
1F
100
AcDbEntity
  8
0
  6
Continuous
 62
     7
370
    15
100
AcDbSpline
210
0.0
220
0.0
230
1.0
 70
     8
 71
     3
 72
    57
 73
    53
 74
     0
 42
0.000000001
 43
0.00000001
 40
0.0
 40
0.0
 40
0.0
 40
0.0
 40
0.0086295633509571
 40
0.0403293599861498
 40
0.056505944015007
 40
0.0720613436366066
 40
0.1036454646747193
 40
0.1196919952043391
 40
0.1364683280522331
 40
0.1704820025615386
 40
0.1877438277655546
 40
0.20647846861652
 40
0.2253472078960786
 40
0.2446730913413978
 40
0.2641786488677096
 40
0.2784046015490736
 40
0.3073101173602704
 40
0.3220374783358069
 40
0.3362660431610346
 40
0.3652323846585876
 40
0.3799961020503503
 40
0.3941199147516569
 40
0.4227327327919775
 40
0.4372307793410323
 40
0.4538265918065525
 40
0.487457977954739
 40
0.504518269137143
 40
0.5233227009185561
 40
0.5422646079182157
 40
0.5616699186677949
 40
0.5812516370987768
 40
0.5987932117674433
 40
0.6346529106613333
 40
0.653052135373655
 40
0.6682696776460278
 40
0.6992554041493335
 40
0.7150573877020758
 40
0.7299624739024319
 40
0.7602027022457966
 40
0.7755544368905616
 40
0.7920293107208778
 40
0.8254282406333042
 40
0.8423735679854352
 40
0.8609229372956119
 40
0.8795982964839989
 40
0.8986936843700029
 40
0.9179502231931039
 40
0.9324992498267654
 40
0.9620504502109228
 40
0.9771039121652006
 40
0.9916564953822875
 40
1.0
 40
1.0
 40
1.0
 40
1.0
 10
79.40745854999928
 20
197.2958895618374
 30
0.0
 10
79.40571909227354
 20
197.191362194869
 30
0.0
 10
79.39758991887872
 20
196.7028644992809
 30
0.0
 10
79.3292197961317
 20
196.0213663359891
 30
0.0
 10
79.21238054232732
 20
195.2808954224032
 30
0.0
 10
79.06566405471293
 20
194.5615867843807
 30
0.0
 10
78.88122657256932
 20
193.8783406180708
 30
0.0
 10
78.66553058522881
 20
193.2293801784969
 30
0.0
 10
78.42633128507745
 20
192.5912993804579
 30
0.0
 10
78.16556840518734
 20
192.0001476230397
 30
0.0
 10
77.89727947564259
 20
191.4609716123755
 30
0.0
 10
77.69183196430862
 20
191.077396826111
 30
0.0
 10
77.49033542741729
 20
190.7242219383606
 30
0.0
 10
77.30518008471226
 20
190.4152243189906
 30
0.0
 10
77.15987880013509
 20
190.1800660127223
 30
0.0
 10
77.02132197187665
 20
189.956481414982
 30
0.0
 10
76.93821365044802
 20
189.816641292368
 30
0.0
 10
76.90962115719066
 20
189.7500658365269
 30
0.0
 10
76.91782246329107
 20
189.7324553005755
 30
0.0
 10
76.98131187516299
 20
189.7886759791518
 30
0.0
 10
77.0933564967192
 20
189.9160572989841
 30
0.0
 10
77.23267318618726
 20
190.0875047015563
 30
0.0
 10
77.40698230390402
 20
190.321905885795
 30
0.0
 10
77.61255058946911
 20
190.6270576581495
 30
0.0
 10
77.84911629118375
 20
191.0035362537747
 30
0.0
 10
78.10912944758613
 20
191.4690449795857
 30
0.0
 10
78.37365090308501
 20
192.0197622516898
 30
0.0
 10
78.57572028235971
 20
192.4921728285805
 30
0.0
 10
78.7737037037784
 20
193.0244232360693
 30
0.0
 10
78.95590047202839
 20
193.6022450439015
 30
0.0
 10
79.11010898273376
 20
194.2010169244792
 30
0.0
 10
79.27419671261255
 20
195.0109323483026
 30
0.0
 10
79.37932457310633
 20
195.8550082133776
 30
0.0
 10
79.41570294010087
 20
196.691683339255
 30
0.0
 10
79.41141100847989
 20
197.4745335463621
 30
0.0
 10
79.35656955209397
 20
198.2255650533037
 30
0.0
 10
79.25503320025062
 20
198.9527553830805
 30
0.0
 10
79.12676921665489
 20
199.6546246436393
 30
0.0
 10
78.96202183133471
 20
200.3222577706925
 30
0.0
 10
78.76439891427832
 20
200.9655790997579
 30
0.0
 10
78.53956034571664
 20
201.609602685522
 30
0.0
 10
78.28820272235241
 20
202.2148900638826
 30
0.0
 10
78.0236947368284
 20
202.7740962999162
 30
0.0
 10
77.81718612892556
 20
203.1769914842092
 30
0.0
 10
77.6101114897109
 20
203.5534028642096
 30
0.0
 10
77.41485932553101
 20
203.8884135488737
 30
0.0
 10
77.25395891473158
 20
204.1530358035733
 30
0.0
 10
77.0904978559751
 20
204.4170379291813
 30
0.0
 10
76.97807251166411
 20
204.5988548158736
 30
0.0
 10
76.92472397633001
 20
204.6992477503873
 30
0.0
 10
76.90395851441033
 20
204.74573161221
 30
0.0
 10
76.92257547839002
 20
204.7319626636934
 30
0.0
 10
76.9293596384637
 20
204.7269451564949
 30
0.0
  0
SPLINE
  5
1A4
330
1F
100
AcDbEntity
  8
0
  6
Continuous
 62
     7
370
    15
100
AcDbSpline
210
0.0
220
0.0
230
1.0
 70
     8
 71
     3
 72
    26
 73
    22
 74
     0
 42
0.000000001
 43
0.00000001
 40
0.0
 40
0.0
 40
0.0
 40
0.0
 40
0.0429580734142831
 40
0.0967224805107622
 40
0.1489139484920615
 40
0.202537897840682
 40
0.2562885085536871
 40
0.3115154354455348
 40
0.366618173631815
 40
0.4234191585991963
 40
0.4767164162152748
 40
0.5317009329113946
 40
0.5827953440678246
 40
0.6353324504360659
 40
0.6872729192117338
 40
0.7405843575038905
 40
0.7950333000510199
 40
0.8510289368471285
 40
0.9058745859327479
 40
0.962445090632797
 40
0.9999999999999999
 40
0.9999999999999999
 40
0.9999999999999999
 40
0.9999999999999999
 10
79.41013739421882
 20
196.9630324140435
 30
0.0
 10
79.40722078207892
 20
196.7841715946338
 30
0.0
 10
79.40065386837826
 20
196.3814565577501
 30
0.0
 10
79.34984582487647
 20
195.7847807335938
 30
0.0
 10
79.27092665177251
 20
195.1862495165157
 30
0.0
 10
79.17088909688405
 20
194.6445479027652
 30
0.0
 10
79.05888539955846
 20
194.1641903459495
 30
0.0
 10
78.9469725465239
 20
193.7643666355863
 30
0.0
 10
78.84698200629651
 20
193.4555804215161
 30
0.0
 10
78.77409073461511
 20
193.2586955155504
 30
0.0
 10
78.73639643771142
 20
193.1761290752366
 30
0.0
 10
78.73808008692605
 20
193.208168870839
 30
0.0
 10
78.77663527897997
 20
193.3479215225211
 30
0.0
 10
78.84526817646946
 20
193.5836626879567
 30
0.0
 10
78.93830660081481
 20
193.9159346312162
 30
0.0
 10
79.0462647568782
 20
194.3380037048664
 30
0.0
 10
79.15958192738604
 20
194.8498890117718
 30
0.0
 10
79.2648543017696
 20
195.4358006777732
 30
0.0
 10
79.34874771057261
 20
196.0842155137706
 30
0.0
 10
79.40026054937331
 20
196.6944171182983
 30
0.0
 10
79.40620216892806
 20
197.087861543019
 30
0.0
 10
79.40857280374634
 20
197.2448411415455
 30
0.0
  0
LINE
  5
1A5
330
1F
100
AcDbEntity
  8
0
  6
Continuous
 62
     7
370
    15
100
AcDbLine
 10
101.4131428571
 20
197.2425714286
 30
0.0
 11
101.4131428571
 21
227.2425714286
 31
0.0
  0
LINE
  5
1A6
330
1F
100
AcDbEntity
  8
0
  6
Continuous
 62
     7
370
    15
100
AcDbLine
 10
101.4131428571
 20
167.2425714286
 30
0.0
 11
101.4131428571
 21
197.2425714286
 31
0.0
  0
LINE
  5
1A7
330
1F
100
AcDbEntity
  8
0
  6
Continuous
 62
     7
370
    15
100
AcDbLine
 10
99.4131428571
 20
197.2425714286
 30
0.0
 11
99.4131428571
 21
167.2425714286
 31
0.0
  0
LINE
  5
1A8
330
1F
100
AcDbEntity
  8
0
  6
Continuous
 62
     7
370
    15
100
AcDbLine
 10
99.4131428571
 20
227.2425714286
 30
0.0
 11
99.4131428571
 21
197.2425714286
 31
0.0
  0
LINE
  5
1A9
330
1F
100
AcDbEntity
  8
0
  6
Continuous
 62
     7
370
    15
100
AcDbLine
 10
97.4131428571
 20
197.2425714286
 30
0.0
 11
97.4131428571
 21
212.2425714286
 31
0.0
  0
LINE
  5
1AA
330
1F
100
AcDbEntity
  8
0
  6
Continuous
 62
     7
370
    15
100
AcDbLine
 10
97.4131428571
 20
182.2425714286
 30
0.0
 11
97.4131428571
 21
197.2425714286
 31
0.0
  0
LINE
  5
1AB
330
1F
100
AcDbEntity
  8
0
  6
Continuous
 62
     8
370
    15
100
AcDbLine
 10
73.4131428571
 20
195.2963034842
 30
0.0
 11
73.4131428571
 21
204.6925714286
 31
0.0
  0
LINE
  5
1AC
330
1F
100
AcDbEntity
  8
0
  6
Continuous
 62
     8
370
    15
100
AcDbLine
 10
73.4131428571
 20
189.7925714286
 30
0.0
 11
73.4131428571
 21
195.2963034842
 31
0.0
  0
ARC
  5
1AD
330
1F
100
AcDbEntity
  8
0
  6
Continuous
 62
     7
370
    15
100
AcDbCircle
 10
183.1254285714
 20
104.7648571429
 30
0.0
 40
4.000000000000014
100
AcDbArc
 50
0.0
 51
90.0
  0
ARC
  5
1AE
330
1F
100
AcDbEntity
  8
0
  6
Continuous
 62
     7
370
    15
100
AcDbCircle
 10
176.2254285714
 20
104.7648571429
 30
0.0
 40
4.000000000000014
100
AcDbArc
 50
90.0
 51
180.0
  0
LINE
  5
1AF
330
1F
100
AcDbEntity
  8
0
  6
Continuous
 62
     7
370
    15
100
AcDbLine
 10
172.2254285714
 20
104.7648571429
 30
0.0
 11
172.2254285714
 21
94.9648571429
 31
0.0
  0
LINE
  5
1B0
330
1F
100
AcDbEntity
  8
0
  6
Continuous
 62
     7
370
    15
100
AcDbLine
 10
187.1254285714
 20
94.9648571429
 30
0.0
 11
187.1254285714
 21
104.7648571429
 31
0.0
  0
LINE
  5
1B1
330
1F
100
AcDbEntity
  8
0
  6
Continuous
 62
     7
370
    15
100
AcDbLine
 10
172.2254285714
 20
94.9648571429
 30
0.0
 11
172.4254285714
 21
94.7648571429
 31
0.0
  0
LINE
  5
1B2
330
1F
100
AcDbEntity
  8
0
  6
Continuous
 62
     7
370
    15
100
AcDbLine
 10
186.9254285714
 20
94.7648571429
 30
0.0
 11
187.1254285714
 21
94.9648571429
 31
0.0
  0
LINE
  5
1B3
330
1F
100
AcDbEntity
  8
0
  6
Continuous
 62
     7
370
    15
100
AcDbLine
 10
187.1254285714
 20
94.5648571429
 30
0.0
 11
186.9254285714
 21
94.7648571429
 31
0.0
  0
LINE
  5
1B4
330
1F
100
AcDbEntity
  8
0
  6
Continuous
 62
     7
370
    15
100
AcDbLine
 10
172.4254285714
 20
94.7648571429
 30
0.0
 11
172.2254285714
 21
94.5648571429
 31
0.0
  0
LINE
  5
1B5
330
1F
100
AcDbEntity
  8
0
  6
Continuous
 62
     7
370
    15
100
AcDbLine
 10
172.2254285714
 20
94.5648571429
 30
0.0
 11
172.2254285714
 21
85.7648571429
 31
0.0
  0
LINE
  5
1B6
330
1F
100
AcDbEntity
  8
0
  6
Continuous
 62
     7
370
    15
100
AcDbLine
 10
187.1254285714
 20
85.7648571429
 30
0.0
 11
187.1254285714
 21
94.5648571429
 31
0.0
  0
LINE
  5
1B7
330
1F
100
AcDbEntity
  8
0
  6
Continuous
 62
     7
370
    15
100
AcDbLine
 10
172.2254285714
 20
85.7648571429
 30
0.0
 11
173.2254285714
 21
84.7648571429
 31
0.0
  0
LINE
  5
1B8
330
1F
100
AcDbEntity
  8
0
  6
Continuous
 62
     7
370
    15
100
AcDbLine
 10
186.1254285714
 20
84.7648571429
 30
0.0
 11
187.1254285714
 21
85.7648571429
 31
0.0
  0
LINE
  5
1B9
330
1F
100
AcDbEntity
  8
0
  6
Continuous
 62
     7
370
    15
100
AcDbLine
 10
172.1754285714
 20
128.7648571429
 30
0.0
 11
172.1754285714
 21
110.7579682335
 31
0.0
  0
LINE
  5
1BA
330
1F
100
AcDbEntity
  8
0
  6
Continuous
 62
     7
370
    15
100
AcDbLine
 10
187.1754285714
 20
110.7602994475
 30
0.0
 11
187.1754285714
 21
128.7648571429
 31
0.0
  0
LINE
  5
1BB
330
1F
100
AcDbEntity
  8
0
  6
Continuous
 62
     7
370
    15
100
AcDbLine
 10
149.6754285714
 20
132.7648571429
 30
0.0
 11
149.6754285714
 21
130.7648571429
 31
0.0
  0
LINE
  5
1BC
330
1F
100
AcDbEntity
  8
0
  6
Continuous
 62
     7
370
    15
100
AcDbLine
 10
209.6754285714
 20
130.7648571429
 30
0.0
 11
209.6754285714
 21
132.7648571429
 31
0.0
  0
LINE
  5
1BD
330
1F
100
AcDbEntity
  8
0
  6
Continuous
 62
     7
370
    15
100
AcDbLine
 10
149.6754285714
 20
130.7648571429
 30
0.0
 11
164.6754285714
 21
128.7648571429
 31
0.0
  0
LINE
  5
1BE
330
1F
100
AcDbEntity
  8
0
  6
Continuous
 62
     7
370
    15
100
AcDbLine
 10
194.6754285714
 20
128.7648571429
 30
0.0
 11
209.6754285714
 21
130.7648571429
 31
0.0
  0
LINE
  5
1BF
330
1F
100
AcDbEntity
  8
0
  6
Continuous
 62
     7
370
    15
100
AcDbLine
 10
176.2254285714
 20
108.7648571429
 30
0.0
 11
176.7342918465
 21
108.7648571429
 31
0.0
  0
LINE
  5
1C0
330
1F
100
AcDbEntity
  8
0
  6
Continuous
 62
     7
370
    15
100
AcDbLine
 10
187.1254285714
 20
94.9648571429
 30
0.0
 11
172.2254285714
 21
94.9648571429
 31
0.0
  0
LINE
  5
1C1
330
1F
100
AcDbEntity
  8
0
  6
Continuous
 62
     7
370
    15
100
AcDbLine
 10
186.9254285714
 20
94.7648571429
 30
0.0
 11
172.4254285714
 21
94.7648571429
 31
0.0
  0
LINE
  5
1C2
330
1F
100
AcDbEntity
  8
0
  6
Continuous
 62
     7
370
    15
100
AcDbLine
 10
187.1254285714
 20
94.5648571429
 30
0.0
 11
172.2254285714
 21
94.5648571429
 31
0.0
  0
LINE
  5
1C3
330
1F
100
AcDbEntity
  8
0
  6
Continuous
 62
     7
370
    15
100
AcDbLine
 10
172.2254285714
 20
85.7648571429
 30
0.0
 11
187.1254285714
 21
85.7648571429
 31
0.0
  0
LINE
  5
1C4
330
1F
100
AcDbEntity
  8
0
  6
Continuous
 62
     7
370
    15
100
AcDbLine
 10
186.1254285714
 20
84.7648571429
 30
0.0
 11
173.2254285714
 21
84.7648571429
 31
0.0
  0
SPLINE
  5
1C5
330
1F
100
AcDbEntity
  8
0
  6
Continuous
 62
     7
370
    15
100
AcDbSpline
210
0.0
220
0.0
230
1.0
 70
     8
 71
     3
 72
    19
 73
    15
 74
     0
 42
0.000000001
 43
0.00000001
 40
0.0
 40
0.0
 40
0.0
 40
0.0
 40
0.0645676691001465
 40
0.1961294560342589
 40
0.2632661738440994
 40
0.3278248268299004
 40
0.4589065321902518
 40
0.5255034966712745
 40
0.5951293164539811
 40
0.7362942535713229
 40
0.8079349835015395
 40
0.8856882529084946
 40
0.9639980630748051
 40
1.0
 40
1.0
 40
1.0
 40
1.0
 10
172.1816324689725
 20
110.7648571428572
 30
0.0
 10
172.1782530380508
 20
110.7622848874089
 30
0.0
 10
172.1679877464954
 20
110.7544714558742
 30
0.0
 10
172.2588428274801
 20
110.6814629696177
 30
0.0
 10
172.4289784772763
 20
110.5640003600257
 30
0.0
 10
172.6536291190086
 20
110.4174338307443
 30
0.0
 10
172.9543576842088
 20
110.2329302389812
 30
0.0
 10
173.3309008157196
 20
110.0172495146954
 30
0.0
 10
173.7691021807636
 20
109.778027963099
 30
0.0
 10
174.2869839097568
 20
109.5173881868403
 30
0.0
 10
174.8843487294674
 20
109.2488045350602
 30
0.0
 10
175.3891292664457
 20
109.0443391573618
 30
0.0
 10
175.8381584817748
 20
108.8774508001183
 30
0.0
 10
176.1265926821341
 20
108.7910355890668
 30
0.0
 10
176.2174336512612
 20
108.7638195324776
 30
0.0
  0
SPLINE
  5
1C6
330
1F
100
AcDbEntity
  8
0
  6
Continuous
 62
     7
370
    15
100
AcDbSpline
210
0.0
220
0.0
230
1.0
 70
     8
 71
     3
 72
    41
 73
    37
 74
     0
 42
0.000000001
 43
0.00000001
 40
0.0
 40
0.0
 40
0.0
 40
0.0
 40
0.001709540802299
 40
0.0488476312412849
 40
0.0728869362337001
 40
0.0955618056203612
 40
0.1415657816250236
 40
0.1649201301507244
 40
0.1899830923666167
 40
0.2407923505781143
 40
0.2665710062167921
 40
0.2947898652464802
 40
0.3232003906640081
 40
0.3522498990252835
 40
0.3815445637312518
 40
0.4036777653905249
 40
0.4486335341745938
 40
0.4715341252239879
 40
0.4936727374567759
 40
0.5387932470153683
 40
0.5618269040617084
 40
0.59371977233452
 40
0.6260188341155036
 40
0.6478064368855186
 40
0.6722920675912718
 40
0.7218913901410946
 40
0.7470348534217996
 40
0.7753914115148601
 40
0.8039446840186244
 40
0.8331518011365525
 40
0.8626047709521302
 40
0.8899159040542811
 40
0.9177319790006375
 40
0.9458174400862364
 40
0.9744737374542807
 40
1.0
 40
1.0
 40
1.0
 40
1.0
 10
187.1740343980166
 20
110.7602994475022
 30
0.0
 10
187.1744844989592
 20
110.7602374025592
 30
0.0
 10
187.1873454759148
 20
110.7584645589434
 30
0.0
 10
187.124412394865
 20
110.706537841789
 30
0.0
 10
186.9852766171749
 20
110.6070522171589
 30
0.0
 10
186.7925528656286
 20
110.478306777207
 30
0.0
 10
186.5302417123761
 20
110.3137648229067
 30
0.0
 10
186.1940335290372
 20
110.1161073952304
 30
0.0
 10
185.7942426487907
 20
109.8912781892208
 30
0.0
 10
185.313382690262
 20
109.6399163015011
 30
0.0
 10
184.7525452828339
 20
109.3754093811166
 30
0.0
 10
184.2765914087877
 20
109.1688993757267
 30
0.0
 10
183.7456916145205
 20
108.9618295939331
 30
0.0
 10
183.1730200120319
 20
108.7665589891662
 30
0.0
 10
182.6107947183089
 20
108.6057225406254
 30
0.0
 10
181.9086898627558
 20
108.4420202231063
 30
0.0
 10
181.2199388794472
 20
108.3310308037404
 30
0.0
 10
180.5125756604875
 20
108.2742960025404
 30
0.0
 10
179.7963079636433
 20
108.2552838056315
 30
0.0
 10
179.0743110790887
 20
108.2948187788218
 30
0.0
 10
178.2916057190804
 20
108.3989599488678
 30
0.0
 10
177.6249515420225
 20
108.5277521737472
 30
0.0
 10
176.9937768394153
 20
108.6902625674323
 30
0.0
 10
176.4407558946262
 20
108.8590233487073
 30
0.0
 10
175.792578911511
 20
109.0812588068037
 30
0.0
 10
175.1678354422014
 20
109.3299111482032
 30
0.0
 10
174.5748054330414
 20
109.590010285663
 30
0.0
 10
174.1357953633958
 20
109.7938607218259
 30
0.0
 10
173.7146843064495
 20
109.9987318156934
 30
0.0
 10
173.3319538508729
 20
110.1915291521126
 30
0.0
 10
173.0019958613456
 20
110.3615937875297
 30
0.0
 10
172.7262290038639
 20
110.5049984117149
 30
0.0
 10
172.5044860743577
 20
110.6195848951082
 30
0.0
 10
172.3348963090064
 20
110.7043237215365
 30
0.0
 10
172.2224798507184
 20
110.7558222030117
 30
0.0
 10
172.1947135929758
 20
110.7619637586688
 30
0.0
 10
172.1816324689725
 20
110.7648571428572
 30
0.0
  0
LINE
  5
1C7
330
1F
100
AcDbEntity
  8
0
  6
Continuous
 62
     7
370
    15
100
AcDbLine
 10
209.6754285714
 20
132.7648571429
 30
0.0
 11
149.6754285714
 21
132.7648571429
 31
0.0
  0
LINE
  5
1C8
330
1F
100
AcDbEntity
  8
0
  6
Continuous
 62
     7
370
    15
100
AcDbLine
 10
149.6754285714
 20
130.7648571429
 30
0.0
 11
209.6754285714
 21
130.7648571429
 31
0.0
  0
LINE
  5
1C9
330
1F
100
AcDbEntity
  8
0
  6
Continuous
 62
     7
370
    15
100
AcDbLine
 10
194.6754285714
 20
128.7648571429
 30
0.0
 11
164.6754285714
 21
128.7648571429
 31
0.0
  0
LINE
  5
1CA
330
1F
100
AcDbEntity
  8
0
  6
Continuous
 62
     8
370
    15
100
AcDbLine
 10
187.1254285714
 20
104.7648571429
 30
0.0
 11
172.2254285714
 21
104.7648571429
 31
0.0
  0
LINE
  5
1CB
330
1F
100
AcDbEntity
  8
0
  6
Continuous
 62
     7
370
    15
100
AcDbLine
 10
292.7840270843
 20
206.6029983592
 30
0.0
 11
292.7840270843
 21
205.7865902473
 31
0.0
  0
LINE
  5
1CC
330
1F
100
AcDbEntity
  8
0
  6
Continuous
 62
     7
370
    15
100
AcDbLine
 10
297.3441245584
 20
197.8874138425
 30
0.0
 11
298.0511164148
 21
197.479143442
 31
0.0
  0
LINE
  5
1CD
330
1F
100
AcDbEntity
  8
0
  6
Continuous
 62
     7
370
    15
100
AcDbLine
 10
300.5498149995
 20
213.6061378594
 30
0.0
 11
294.3272753251
 21
210.0139421673
 31
0.0
  0
LINE
  5
1CE
330
1F
100
AcDbEntity
  8
0
  6
Continuous
 62
     7
370
    15
100
AcDbLine
 10
301.7766698832
 20
197.1098141179
 30
0.0
 11
307.9992095576
 21
200.7020098099
 31
0.0
  0
LINE
  5
1CF
330
1F
100
AcDbEntity
  8
0
  6
Continuous
 62
     7
370
    15
100
AcDbLine
 10
309.5424577984
 20
204.1129536181
 30
0.0
 11
309.5424577984
 21
204.2762352405
 31
0.0
  0
LINE
  5
1D0
330
1F
100
AcDbEntity
  8
0
  6
Continuous
 62
     7
370
    15
100
AcDbLine
 10
304.4167668392
 20
213.1551544552
 30
0.0
 11
304.2753684679
 21
213.2368085353
 31
0.0
  0
LINE
  5
1D1
330
1F
100
AcDbEntity
  8
0
  6
Continuous
 62
     7
370
    15
100
AcDbLine
 10
307.7623041676
 20
217.7698192297
 30
0.0
 11
300.832657712
 21
213.7694194817
 31
0.0
  0
LINE
  5
1D2
330
1F
100
AcDbEntity
  8
0
  6
Continuous
 62
     7
370
    15
100
AcDbLine
 10
308.2820522701
 20
200.8652914323
 30
0.0
 11
315.2116987258
 21
204.8656911802
 31
0.0
  0
SPLINE
  5
1D3
330
1F
100
AcDbEntity
  8
0
  6
Continuous
 62
     7
370
    15
100
AcDbSpline
210
0.0
220
0.0
230
1.0
 70
     8
 71
     3
 72
    15
 73
    11
 74
     0
 42
0.000000001
 43
0.00000001
 40
0.0
 40
0.0
 40
0.0
 40
0.0
 40
0.0430750142786909
 40
0.1983226206902848
 40
0.3516270877043864
 40
0.5038584656765414
 40
0.6559964382918958
 40
0.8091031053841242
 40
0.9685999308045512
 40
1.0
 40
1.0
 40
1.0
 40
1.0
 10
315.2041783606816
 20
204.8714676586845
 30
0.0
 10
315.2585776685049
 20
204.899830171819
 30
0.0
 10
315.5090387181851
 20
205.0304146423848
 30
0.0
 10
315.9094114973649
 20
205.3362852142839
 30
0.0
 10
316.3924470488961
 20
205.7796421401346
 30
0.0
 10
316.8094846895067
 20
206.2805154575539
 30
0.0
 10
317.1632331111271
 20
206.8251167211558
 30
0.0
 10
317.4538901882162
 20
207.4157609277622
 30
0.0
 10
317.6183579168112
 20
207.8738377379415
 30
0.0
 10
317.6906178719853
 20
208.1333199076821
 30
0.0
 10
317.7025036996573
 20
208.1760013672273
 30
0.0
  0
SPLINE
  5
1D4
330
1F
100
AcDbEntity
  8
0
  6
Continuous
 62
     7
370
    15
100
AcDbSpline
210
0.0
220
0.0
230
1.0
 70
     8
 71
     3
 72
    31
 73
    27
 74
     0
 42
0.000000001
 43
0.00000001
 40
0.0
 40
0.0
 40
0.0
 40
0.0
 40
0.0343483762716967
 40
0.076144077599217
 40
0.1189910668997229
 40
0.1631459635316679
 40
0.2083160371683512
 40
0.2540278567674986
 40
0.2998245583261638
 40
0.3455921065089974
 40
0.3914070778154241
 40
0.4374637665781456
 40
0.4839373143989813
 40
0.5310702283352705
 40
0.5790436391065295
 40
0.6278461764800807
 40
0.6712488389174299
 40
0.713514423574482
 40
0.7545710950583701
 40
0.7945480816417071
 40
0.8336536609626416
 40
0.8721031426360056
 40
0.9100906089518281
 40
0.951479480041163
 40
0.9919981361659181
 40
1.0
 40
1.0
 40
1.0
 40
1.0
 10
317.7025036996573
 20
208.1760013672273
 30
0.0
 10
317.7473407500447
 20
208.3614414766898
 30
0.0
 10
317.8467363027491
 20
208.772528334864
 30
0.0
 10
317.9217922415005
 20
209.4318413422496
 30
0.0
 10
317.9347448162108
 20
210.1525475869986
 30
0.0
 10
317.8734058434628
 20
210.8960935187723
 30
0.0
 10
317.7385680724216
 20
211.6542937311368
 30
0.0
 10
317.5312928666586
 20
212.4149128242869
 30
0.0
 10
317.255602532253
 20
213.1656901195333
 30
0.0
 10
316.9161292218604
 20
213.8967672873187
 30
0.0
 10
316.5166419436044
 20
214.6012161862389
 30
0.0
 10
316.0598247436603
 20
215.2730641648546
 30
0.0
 10
315.5471346164624
 20
215.9065687758336
 30
0.0
 10
314.9790576700523
 20
216.4952271783639
 30
0.0
 10
314.3556975524672
 20
217.0308465774793
 30
0.0
 10
313.7060950253677
 20
217.4832362647602
 30
0.0
 10
313.0469442616784
 20
217.8467002184877
 30
0.0
 10
312.396624736628
 20
218.1214506846625
 30
0.0
 10
311.7398711407243
 20
218.3183974668775
 30
0.0
 10
311.082255894479
 20
218.4376266092798
 30
0.0
 10
310.4285728429933
 20
218.47990491793
 30
0.0
 10
309.7843437614928
 20
218.4453714443228
 30
0.0
 10
309.1338434215863
 20
218.3335163453761
 30
0.0
 10
308.4943105445589
 20
218.1299105506465
 30
0.0
 10
308.0270942773665
 20
217.9326891130659
 30
0.0
 10
307.7986997434799
 20
217.7853437079829
 30
0.0
 10
307.7610335774504
 20
217.7610439298879
 30
0.0
  0
LINE
  5
1D5
330
1F
100
AcDbEntity
  8
0
  6
Continuous
 62
     7
370
    15
100
AcDbLine
 10
325.1416379826
 20
227.8604285484
 30
0.0
 11
311.2153407543
 21
219.8209482836
 31
0.0
  0
LINE
  5
1D6
330
1F
100
AcDbEntity
  8
0
  6
Continuous
 62
     7
370
    15
100
AcDbLine
 10
318.715106629
 20
206.8304320501
 30
0.0
 11
332.6410284774
 21
214.8696956127
 31
0.0
  0
LINE
  5
1D7
330
1F
100
AcDbEntity
  8
0
  6
Continuous
 62
     7
370
    15
100
AcDbLine
 10
316.2872103304
 20
248.7289346419
 30
0.0
 11
314.872996768
 21
247.91252653
 31
0.0
  0
LINE
  5
1D8
330
1F
100
AcDbEntity
  8
0
  6
Continuous
 62
     7
370
    15
100
AcDbLine
 10
344.8705587471
 20
195.9495947872
 30
0.0
 11
346.2847723094
 21
196.766002899
 31
0.0
  0
LWPOLYLINE
  5
1D9
330
1F
100
AcDbEntity
  8
0
  6
Continuous
 62
     7
370
    15
100
AcDbPolyline
 90
       52
 70
   128
 43
0.0
 10
301.7473193646
 20
199.2363009504
 10
301.8603714066
 20
199.8062043152
 10
301.9049729868
 20
200.4268519097
 10
301.8804479907
 20
201.0888353487
 10
301.7871681922
 20
201.7821196382
 10
301.6265476181
 20
202.4961952951
 10
301.4010211125
 20
203.2202376603
 10
301.1140074273
 20
203.9432709895
 10
300.7698573974
 20
204.6543348346
 10
300.3737879865
 20
205.3426501924
 10
299.9318032031
 20
205.9977829038
 10
299.450603086
 20
206.6098018246
 10
298.9374821385
 20
207.1694293719
 10
298.4002187511
 20
207.6681821625
 10
297.846957289
 20
208.0984996126
 10
297.2860846321
 20
208.4538585481
 10
296.7261030381
 20
208.7288720899
 10
296.1755012573
 20
208.919371313
 10
295.6426258512
 20
209.0224684434
 10
295.135554668
 20
209.0366006337
 10
294.6619743898
 20
208.9615536542
 10
294.229064011
 20
208.7984651408
 10
293.8433860116
 20
208.5498073489
 10
293.5107868768
 20
208.2193496773
 10
293.2363084707
 20
207.8121015274
 10
293.024111606
 20
207.334236366
 10
292.8774129709
 20
206.7929981419
 10
292.7984363671
 20
206.1965914749
 10
292.7883789996
 20
205.554057282
 10
292.8473933276
 20
204.8751357268
 10
292.9745847542
 20
204.1701185678
 10
293.168025187
 20
203.4496931465
 10
293.4247822662
 20
202.7247803781
 10
293.7409638162
 20
202.0063692011
 10
294.111776847
 20
201.3053499967
 10
294.5316002111
 20
200.6323495014
 10
294.9940698141
 20
199.9975697167
 10
295.4921750884
 20
199.4106332572
 10
296.0183652656
 20
198.8804374811
 10
296.5646638392
 20
198.4150196161
 10
297.1227894795
 20
198.0214349225
 10
297.6842815709
 20
197.7056497432
 10
298.2406284655
 20
197.4724510595
 10
298.7833965115
 20
197.3253739257
 10
299.3043578986
 20
197.2666478814
 10
299.7956153832
 20
197.2971631534
 10
300.2497220027
 20
197.4164571614
 10
300.6597939636
 20
197.6227215298
 10
301.0196149929
 20
197.912829501
 10
301.3237305706
 20
198.2823833339
 10
301.5675306145
 20
198.7257809691
 10
301.7473193646
 20
199.2363009504
  0
LWPOLYLINE
  5
1DA
330
1F
100
AcDbEntity
  8
0
  6
Continuous
 62
     7
370
    15
100
AcDbPolyline
 90
       13
 70
   128
 43
0.0
 10
303.1369770824
 20
199.037160334
 10
302.9469545036
 20
198.4878621424
 10
302.6931183497
 20
198.0047115092
 10
302.3787777634
 20
197.5940070416
 10
302.0080306548
 20
197.2611029004
 10
301.5857102795
 20
197.0103390004
 10
301.1173222294
 20
196.8449844324
 10
300.6089726591
 20
196.767194846
 10
300.0672886827
 20
196.7779843475
 10
299.4993319792
 20
196.8772122793
 10
298.9125067328
 20
197.0635850535
 10
298.314463108
 20
197.334673016
 10
298.0511164148
 20
197.479143442
  0
LWPOLYLINE
  5
1DB
330
1F
100
AcDbEntity
  8
0
  6
Continuous
 62
     7
370
    15
100
AcDbPolyline
 90
       32
 70
   128
 43
0.0
 10
292.7840270843
 20
206.6029983592
 10
292.8067680101
 20
207.1544995849
 10
292.8966945185
 20
207.7893481115
 10
293.0538279608
 20
208.369085102
 10
293.2761198621
 20
208.8861527981
 10
293.5606723077
 20
209.3338104316
 10
293.9037757212
 20
209.7062221007
 10
294.3009572249
 20
209.9985328497
 10
294.7470389505
 20
210.206931961
 10
295.2362055405
 20
210.3287026335
 10
295.7620799604
 20
210.3622574003
 10
296.3178066328
 20
210.3071588236
 10
296.8961408108
 20
210.1641251976
 10
297.4895430237
 20
209.9350211844
 10
298.0902773664
 20
209.6228335052
 10
298.6905123479
 20
209.2316320039
 10
299.2824229873
 20
208.7665165901
 10
299.8582928243
 20
208.2335507548
 10
300.4106145148
 20
207.6396825225
 10
300.9321877009
 20
206.992653874
 10
301.4162128784
 20
206.3008998171
 10
301.8563800391
 20
205.5734384239
 10
302.2469509308
 20
204.8197532661
 10
302.5828338646
 20
204.0496697824
 10
302.8596500928
 20
203.2732271887
 10
303.0737908925
 20
202.5005476016
 10
303.2224646109
 20
201.7417040813
 10
303.3037330589
 20
201.0065893134
 10
303.3165367777
 20
200.3047866432
 10
303.2607088514
 20
199.6454451418
 10
303.1369770824
 20
199.037160334
 10
303.1369770824
 20
199.037160334
  0
LWPOLYLINE
  5
1DC
330
1F
100
AcDbEntity
  8
0
  6
Continuous
 62
     7
370
    15
100
AcDbPolyline
 90
       24
 70
   128
 43
0.0
 10
309.3595167569
 20
202.629356026
 10
309.4832485259
 20
203.2376408338
 10
309.5390764521
 20
203.8969823352
 10
309.5262727333
 20
204.5987850054
 10
309.4450042854
 20
205.3338997733
 10
309.2963305669
 20
206.0927432937
 10
309.0821897672
 20
206.8654228807
 10
308.805373539
 20
207.6418654744
 10
308.4694906052
 20
208.4119489581
 10
308.0789197136
 20
209.1656341159
 10
307.6387525529
 20
209.8930955091
 10
307.1547273753
 20
210.584849566
 10
306.6331541892
 20
211.2318782146
 10
306.0808324987
 20
211.8257464468
 10
305.5049626618
 20
212.3587122822
 10
304.9130520223
 20
212.8238276959
 10
304.3128170408
 20
213.2150291973
 10
303.7120826982
 20
213.5272168764
 10
303.1186804852
 20
213.7563208896
 10
302.5403463073
 20
213.8993545156
 10
301.9846196349
 20
213.9544530923
 10
301.458745215
 20
213.9208983256
 10
300.969578625
 20
213.799127653
 10
300.5498149995
 20
213.6061378594
  0
ARC
  5
1DD
330
1F
100
AcDbEntity
  8
0
  6
Continuous
 62
     7
370
    15
100
AcDbCircle
 10
306.366088009
 20
203.2983760022
 30
0.0
 40
3.067279478196313
100
AcDbArc
 50
302.1700069069
 51
347.4016520504
  0
LINE
  5
1DE
330
1F
100
AcDbEntity
  8
0
  6
Continuous
 62
     7
370
    15
100
AcDbLine
 10
299.313266324
 20
202.6414067858
 30
0.0
 11
297.8610418365
 21
205.1362322098
 31
0.0
  0
LINE
  5
1DF
330
1F
100
AcDbEntity
  8
0
  6
Continuous
 62
     7
370
    15
100
AcDbLine
 10
297.8610418365
 20
205.1362322098
 30
0.0
 11
295.8926413354
 21
205.6484995107
 31
0.0
  0
LINE
  5
1E0
330
1F
100
AcDbEntity
  8
0
  6
Continuous
 62
     7
370
    15
100
AcDbLine
 10
295.8926413354
 20
205.6484995107
 30
0.0
 11
295.3764653219
 21
203.6659413876
 31
0.0
  0
LINE
  5
1E1
330
1F
100
AcDbEntity
  8
0
  6
Continuous
 62
     7
370
    15
100
AcDbLine
 10
295.3764653219
 20
203.6659413876
 30
0.0
 11
296.8286898094
 21
201.1711159636
 31
0.0
  0
LINE
  5
1E2
330
1F
100
AcDbEntity
  8
0
  6
Continuous
 62
     7
370
    15
100
AcDbLine
 10
296.8286898094
 20
201.1711159636
 30
0.0
 11
298.7970903105
 21
200.6588486627
 31
0.0
  0
LINE
  5
1E3
330
1F
100
AcDbEntity
  8
0
  6
Continuous
 62
     7
370
    15
100
AcDbLine
 10
298.7970903105
 20
200.6588486627
 30
0.0
 11
299.313266324
 21
202.6414067858
 31
0.0
  0
ARC
  5
1E4
330
1F
100
AcDbEntity
  8
0
  6
Continuous
 62
     7
370
    15
100
AcDbCircle
 10
298.4850096089
 20
203.8118650843
 30
0.0
 40
11.06719477134232
100
AcDbArc
 50
2.4047885585
 51
57.5898349088
  0
LWPOLYLINE
  5
1E5
330
1F
100
AcDbEntity
  8
0
  6
Continuous
 62
     7
370
    15
100
AcDbPolyline
 90
       25
 70
   128
 43
0.0
 10
309.6423594694
 20
202.7926376483
 10
309.7660912384
 20
203.4009224562
 10
309.8219191646
 20
204.0602639576
 10
309.8091154458
 20
204.7620666278
 10
309.7278469979
 20
205.4971813957
 10
309.5791732794
 20
206.256024916
 10
309.3650324797
 20
207.0287045031
 10
309.0882162515
 20
207.8051470968
 10
308.7523333177
 20
208.5752305805
 10
308.361762426
 20
209.3289157382
 10
307.9215952654
 20
210.0563771315
 10
307.4375700878
 20
210.7481311884
 10
306.9159969017
 20
211.3951598369
 10
306.3636752112
 20
211.9890280692
 10
305.7878053743
 20
212.5219939045
 10
305.1958947348
 20
212.9871093183
 10
304.5956597533
 20
213.3783108196
 10
303.9949254106
 20
213.6904984988
 10
303.4015231977
 20
213.919602512
 10
302.8231890198
 20
214.062636138
 10
302.2674623473
 20
214.1177347147
 10
301.7415879275
 20
214.0841799479
 10
301.2524213374
 20
213.9624092754
 10
300.8063396118
 20
213.7540101641
 10
300.6939212328
 20
213.6831278232
  0
ARC
  5
1E6
330
1F
100
AcDbEntity
  8
0
  6
Continuous
 62
     7
370
    15
100
AcDbCircle
 10
306.6843231907
 20
203.4461197716
 30
0.0
 40
3.029359257505749
100
AcDbArc
 50
298.6752782008
 51
347.5424464798
  0
LINE
  5
1E7
330
1F
100
AcDbEntity
  8
0
  6
Continuous
 62
     7
370
    15
100
AcDbLine
 10
297.691098348
 20
205.0021505916
 30
0.0
 11
295.3764653219
 21
203.6659413876
 31
0.0
  0
LINE
  5
1E8
330
1F
100
AcDbEntity
  8
0
  6
Continuous
 62
     7
370
    15
100
AcDbLine
 10
297.6933260248
 20
205.179879489
 30
0.0
 11
297.691098348
 21
205.0021505916
 31
0.0
  0
LINE
  5
1E9
330
1F
100
AcDbEntity
  8
0
  6
Continuous
 62
     7
370
    15
100
AcDbLine
 10
299.1433228356
 20
202.5073251676
 30
0.0
 11
296.8286898094
 21
201.1711159636
 31
0.0
  0
LINE
  5
1EA
330
1F
100
AcDbEntity
  8
0
  6
Continuous
 62
     7
370
    15
100
AcDbLine
 10
299.1433228356
 20
202.5073251676
 30
0.0
 11
299.2620446553
 21
202.444671694
 31
0.0
  0
SPLINE
  5
1EB
330
1F
100
AcDbEntity
  8
0
  6
Continuous
 62
     7
370
    15
100
AcDbSpline
210
0.0
220
0.0
230
1.0
 70
     8
 71
     3
 72
    11
 73
     7
 74
     0
 42
0.000000001
 43
0.00000001
 40
0.0
 40
0.0
 40
0.0
 40
0.0
 40
0.2655751856062857
 40
0.5374312920939633
 40
0.7664580494502812
 40
1.0
 40
1.0
 40
1.0
 40
1.0
 10
297.6910983480375
 20
205.0021505915834
 30
0.0
 10
297.769866158697
 20
204.7576365639571
 30
0.0
 10
297.92926465883
 20
204.2628256895817
 30
0.0
 10
298.2733300996591
 20
203.5921456032458
 30
0.0
 10
298.6863563109893
 20
203.0025776650694
 30
0.0
 10
298.9900126510703
 20
202.6734801213623
 30
0.0
 10
299.1433228355839
 20
202.5073251675904
 30
0.0
  0
SPLINE
  5
1EC
330
1F
100
AcDbEntity
  8
0
  6
Continuous
 62
     7
370
    15
100
AcDbSpline
210
0.0
220
0.0
230
1.0
 70
     8
 71
     3
 72
    49
 73
    45
 74
     0
 42
0.000000001
 43
0.00000001
 40
0.0
 40
0.0
 40
0.0
 40
0.0
 40
0.0104616723130992
 40
0.0301835441927601
 40
0.070149884504689
 40
0.0904237263324461
 40
0.1127702426680191
 40
0.1352801296518515
 40
0.1583407091313637
 40
0.1816109252103757
 40
0.2024567071750551
 40
0.2450710949127961
 40
0.266936077613426
 40
0.2850200623320164
 40
0.3218423950419113
 40
0.3406209089422804
 40
0.358333582004202
 40
0.3942699912784454
 40
0.4125134454283182
 40
0.4320915981454644
 40
0.471781695754072
 40
0.491918918664488
 40
0.5139623278524302
 40
0.5361554589199952
 40
0.5588477371174395
 40
0.5817315213433664
 40
0.5990210659100444
 40
0.6341386589219795
 40
0.6520276564401439
 40
0.6693214275237698
 40
0.7045677092363692
 40
0.7225606524249307
 40
0.7474740461512717
 40
0.7727047414985144
 40
0.7897243184622219
 40
0.8088514836074856
 40
0.8475964293638046
 40
0.8672374661936594
 40
0.8893884402124661
 40
0.9116930794182226
 40
0.9345084750780295
 40
0.9575159207285373
 40
0.9788502518481511
 40
1.0
 40
1.0
 40
1.0
 40
1.0
 10
316.6840217993441
 20
206.1504751090666
 30
0.0
 10
316.770526223095
 20
206.1609264841981
 30
0.0
 10
317.0201048773494
 20
206.1910803194276
 30
0.0
 10
317.5886459082786
 20
206.324756968984
 30
0.0
 10
318.2120675160245
 20
206.5546104250153
 30
0.0
 10
318.8090673316781
 20
206.8760568800547
 30
0.0
 10
319.2501032967035
 20
207.1720656968186
 30
0.0
 10
319.6710723646457
 20
207.5253129009815
 30
0.0
 10
320.0515289638365
 20
207.9262342653425
 30
0.0
 10
320.3704877984129
 20
208.3569240532414
 30
0.0
 10
320.7101780477042
 20
208.9561159907478
 30
0.0
 10
320.9335805837112
 20
209.602198340004
 30
0.0
 10
321.0263136775403
 20
210.261543602478
 30
0.0
 10
321.0407320769192
 20
210.8889452221954
 30
0.0
 10
320.9589224742053
 20
211.5046477635993
 30
0.0
 10
320.7863258812746
 20
212.1151711373903
 30
0.0
 10
320.5599204182699
 20
212.7142613682913
 30
0.0
 10
320.2577024420549
 20
213.2993766855641
 30
0.0
 10
319.8802674931938
 20
213.8812224129962
 30
0.0
 10
319.4385767910796
 20
214.4785165312205
 30
0.0
 10
318.9208255093611
 20
215.066439472925
 30
0.0
 10
318.3372176267059
 20
215.6440172742331
 30
0.0
 10
317.8546430817073
 20
216.0829870473853
 30
0.0
 10
317.3328197086711
 20
216.522525712632
 30
0.0
 10
316.7898025888079
 20
216.9501526073015
 30
0.0
 10
316.278520721865
 20
217.3300052898188
 30
0.0
 10
315.6663026000034
 20
217.7656187485739
 30
0.0
 10
315.1008007375166
 20
218.1483360316184
 30
0.0
 10
314.5605018460582
 20
218.4996455798095
 30
0.0
 10
314.0405804471199
 20
218.8287033876893
 30
0.0
 10
313.5580070015306
 20
219.1208089896479
 30
0.0
 10
313.078189661785
 20
219.3928333530714
 30
0.0
 10
312.6978638260987
 20
219.5921579031805
 30
0.0
 10
312.3664681221815
 20
219.7416570165182
 30
0.0
 10
312.0947551358949
 20
219.840290278229
 30
0.0
 10
311.7935690927538
 20
219.9199067011874
 30
0.0
 10
311.5276318900338
 20
219.9326909403364
 30
0.0
 10
311.2922157143718
 20
219.8683617710741
 30
0.0
 10
311.1259275300841
 20
219.7715780398494
 30
0.0
 10
310.9730431007985
 20
219.6172192498415
 30
0.0
 10
310.8386623273635
 20
219.4053120254775
 30
0.0
 10
310.7258874744546
 20
219.1379203891339
 30
0.0
 10
310.6321189729904
 20
218.8263461126221
 30
0.0
 10
310.584870301842
 20
218.5807274082247
 30
0.0
 10
310.5613486082469
 20
218.4584516327232
 30
0.0
  0
SPLINE
  5
1ED
330
1F
100
AcDbEntity
  8
0
  6
Continuous
 62
     7
370
    15
100
AcDbSpline
210
0.0
220
0.0
230
1.0
 70
     8
 71
     3
 72
    11
 73
     7
 74
     0
 42
0.000000001
 43
0.00000001
 40
0.0
 40
0.0
 40
0.0
 40
0.0
 40
0.2750891608183573
 40
0.5584018490123406
 40
0.8334259010406276
 40
0.9999999999999999
 40
0.9999999999999999
 40
0.9999999999999999
 40
0.9999999999999999
 10
318.5910557158747
 20
211.9806400010026
 30
0.0
 10
318.5753724753905
 20
211.8093032255031
 30
0.0
 10
318.5435371589467
 20
211.4615077254618
 30
0.0
 10
318.3675289104676
 20
211.0033333572256
 30
0.0
 10
318.1528424270327
 20
210.6458123014446
 30
0.0
 10
317.969628078795
 20
210.4809676431408
 30
0.0
 10
317.9005182672935
 20
210.4187870149751
 30
0.0
  0
SPLINE
  5
1EE
330
1F
100
AcDbEntity
  8
0
  6
Continuous
 62
     7
370
    15
100
AcDbSpline
210
0.0
220
0.0
230
1.0
 70
     8
 71
     3
 72
    20
 73
    16
 74
     0
 42
0.000000001
 43
0.00000001
 40
0.0
 40
0.0
 40
0.0
 40
0.0
 40
0.0616517417218427
 40
0.1410564490990384
 40
0.2229979535695841
 40
0.2985959812259369
 40
0.3764687687590027
 40
0.4509121528363609
 40
0.527352357644271
 40
0.6049057305980446
 40
0.6845531742838248
 40
0.7647737200313098
 40
0.8474162550864484
 40
0.9226197900416305
 40
1.0
 40
1.0
 40
1.0
 40
1.0
 10
314.0133409218212
 20
217.2514086512359
 30
0.0
 10
314.1044188620496
 20
217.2448870741411
 30
0.0
 10
314.3128011474655
 20
217.2299659951605
 30
0.0
 10
314.7032616053193
 20
217.0913009490733
 30
0.0
 10
315.1550204345916
 20
216.8670162516743
 30
0.0
 10
315.6357568196691
 20
216.5625948519346
 30
0.0
 10
316.1156671841651
 20
216.2032125154924
 30
0.0
 10
316.5956337348634
 20
215.7869094744776
 30
0.0
 10
317.0571389507788
 20
215.3253095181969
 30
0.0
 10
317.4938009923883
 20
214.8142654635085
 30
0.0
 10
317.8839471066339
 20
214.2635992809244
 30
0.0
 10
318.210685618535
 20
213.6784717860781
 30
0.0
 10
318.441639257414
 20
213.0938042087283
 30
0.0
 10
318.5806235197736
 20
212.5176103282244
 30
0.0
 10
318.5875454025951
 20
212.161324302962
 30
0.0
 10
318.5910557158747
 20
211.9806400010026
 30
0.0
  0
LWPOLYLINE
  5
1EF
330
1F
100
AcDbEntity
  8
0
  6
Continuous
 62
     7
370
    15
100
AcDbPolyline
 90
       44
 70
   128
 43
0.0
 10
339.064165913
 20
214.9915917081
 10
339.0297719718
 20
215.9970104679
 10
338.9268132064
 20
217.0356191004
 10
338.7559573438
 20
218.1006818301
 10
338.5183124497
 20
219.1852913164
 10
338.2154197426
 20
220.2824134507
 10
337.8492435979
 20
221.3849329748
 10
337.4221588084
 20
222.4856996266
 10
336.9369351828
 20
223.5775745121
 10
336.3967195825
 20
224.6534764034
 10
335.8050155131
 20
225.7064276642
 10
335.1656604024
 20
226.7295995012
 10
334.4828007137
 20
227.7163562526
 10
333.7608650541
 20
228.6602984223
 10
333.0045354533
 20
229.5553041829
 10
332.2187169992
 20
230.3955690787
 10
331.4085060259
 20
231.1756436694
 10
330.5791570624
 20
231.890468872
 10
329.736048755
 20
232.5354087706
 10
328.8846489847
 20
233.1062806827
 10
328.0304794056
 20
233.5993822847
 10
327.1790796353
 20
234.0115156236
 10
326.335971328
 20
234.3400078565
 10
325.5066223645
 20
234.5827285853
 10
324.6964113911
 20
234.7381036728
 10
323.910592937
 20
234.805125452
 10
323.1542633363
 20
234.7833592609
 10
322.4323276767
 20
234.6729462617
 10
321.749467988
 20
234.474602525
 10
321.1101128773
 20
234.1896143861
 10
320.5184088078
 20
233.8198301023
 10
319.9781932076
 20
233.3676478668
 10
319.492969582
 20
232.8360002547
 10
319.0658847924
 20
232.2283352049
 10
318.6997086477
 20
231.5485936584
 10
318.3968159406
 20
230.8011839999
 10
318.1591710466
 20
229.9909534679
 10
317.9883151839
 20
229.1231567184
 10
317.8853564185
 20
228.2034217461
 10
317.8509624774
 20
227.2377133855
 10
317.8853564185
 20
226.2322946256
 10
317.9883151839
 20
225.1936859931
 10
318.1591710466
 20
224.1286232635
 10
318.2121506153
 20
223.8601206401
  0
LWPOLYLINE
  5
1F0
330
1F
100
AcDbEntity
  8
0
  6
Continuous
 62
     7
370
    15
100
AcDbPolyline
 90
       24
 70
   128
 43
0.0
 10
325.71154111
 20
210.8693877044
 10
326.335971328
 20
210.3388362216
 10
327.1790796353
 20
209.693896323
 10
328.0304794056
 20
209.1230244109
 10
328.8846489847
 20
208.6299228089
 10
329.736048755
 20
208.21778947
 10
330.5791570624
 20
207.8892972371
 10
331.4085060259
 20
207.6465765083
 10
332.2187169992
 20
207.4912014208
 10
333.0045354533
 20
207.4241796416
 10
333.7608650541
 20
207.4459458327
 10
334.4828007137
 20
207.5563588319
 10
335.1656604024
 20
207.7547025686
 10
335.8050155131
 20
208.0396907075
 10
336.3967195825
 20
208.4094749913
 10
336.9369351828
 20
208.8616572268
 10
337.4221588084
 20
209.3933048389
 10
337.8492435979
 20
210.0009698887
 10
338.2154197426
 20
210.6807114352
 10
338.5183124497
 20
211.4281210937
 10
338.7559573438
 20
212.2383516257
 10
338.9268132064
 20
213.1061483752
 10
339.0297719718
 20
214.0258833475
 10
339.064165913
 20
214.9915917081
  0
LWPOLYLINE
  5
1F1
330
1F
100
AcDbEntity
  8
0
  6
Continuous
 62
     7
370
    15
100
AcDbPolyline
 90
       39
 70
   128
 43
0.0
 10
351.0849811931
 20
209.6849389813
 10
351.0510050502
 20
208.3186778933
 10
350.9491854572
 20
206.9960213711
 10
350.7798485731
 20
205.7212062823
 10
350.5435368349
 20
204.498316244
 10
350.2410072203
 20
203.3312685415
 10
349.8732288229
 20
202.2238015806
 10
349.4413797479
 20
201.1794629117
 10
348.9468433379
 20
200.2015978665
 10
348.3912037422
 20
199.2933388416
 10
347.7762408419
 20
198.4575952643
 10
347.1039245486
 20
197.6970442734
 10
346.3764084941
 20
197.0141221429
 10
345.5960231315
 20
196.4110164783
 10
344.7652682706
 20
195.8896592089
 10
343.8868050696
 20
195.4517203991
 10
342.9634475108
 20
195.0986028991
 10
341.9981533871
 20
194.8314378506
 10
340.9940148264
 20
194.6510810638
 10
339.9542483873
 20
194.5581102759
 10
338.8821847551
 20
194.5528233003
 10
337.781258073
 20
194.6352370729
 10
336.6549949408
 20
194.8050875974
 10
335.5070031191
 20
195.0618307914
 10
334.3409599716
 20
195.4046442292
 10
333.1606006862
 20
195.8324297757
 10
331.9697063094
 20
196.3438171052
 10
330.772091635
 20
196.9371680896
 10
329.5715929838
 20
197.6105820469
 10
328.372055915
 20
198.3619018293
 10
327.1773229073
 20
199.1887207329
 10
325.9912210508
 20
200.0883902076
 10
324.8175497874
 20
201.0580283407
 10
323.6600687399
 20
202.0945290891
 10
322.522485669
 20
203.1945722283
 10
321.4084445963
 20
204.3546339885
 10
320.3215141312
 20
205.5709983422
 10
319.2651760397
 20
206.8397689077
 10
319.0966052508
 20
207.0506665166
  0
LWPOLYLINE
  5
1F2
330
1F
100
AcDbEntity
  8
0
  6
Continuous
 62
     7
370
    15
100
AcDbPolyline
 90
       67
 70
   128
 43
0.0
 10
311.597214756
 20
220.0413994523
 10
311.0670007957
 20
221.4501137608
 10
310.5417024146
 20
223.000050238
 10
310.0783240924
 20
224.5465624194
 10
309.6783501694
 20
226.08469636
 10
309.3430618829
 20
227.6095249533
 10
309.0735332622
 20
229.1161637136
 10
308.8706276888
 20
230.5997864226
 10
308.7349951304
 20
232.0556405896
 10
308.6670700589
 20
233.4790626748
 10
308.6670700589
 20
234.865493028
 10
308.7349951304
 20
236.210490495
 10
308.8706276888
 20
237.5097466434
 10
309.0735332622
 20
238.7590995639
 10
309.3430618829
 20
239.9545472026
 10
309.6783501694
 20
241.0922601802
 10
310.0783240924
 20
242.1685940592
 10
310.5417024146
 20
243.1801010175
 10
311.0670007957
 20
244.1235408935
 10
311.6525365466
 20
244.9958915649
 10
312.2964340198
 20
245.7943586294
 10
312.9966306174
 20
246.5163843562
 10
313.7508833988
 20
247.1596558795
 10
314.5567762649
 20
247.7221126064
 10
315.4117276979
 20
248.2019528186
 10
316.3129990305
 20
248.5976394431
 10
317.257703219
 20
248.9079049765
 10
318.2428140912
 20
249.1317555447
 10
319.2651760397
 20
249.2684740869
 10
320.3215141312
 20
249.3176226523
 10
321.4084445963
 20
249.2790438032
 10
322.522485669
 20
249.1528611194
 10
323.6600687399
 20
248.939478802
 10
324.8175497874
 20
248.639580379
 10
325.9912210508
 20
248.2541265153
 10
327.1773229073
 20
247.7843519359
 10
328.372055915
 20
247.2317614705
 10
329.5715929838
 20
246.5981252328
 10
330.772091635
 20
245.8854729507
 10
331.9697063094
 20
245.0960874644
 10
333.1606006862
 20
244.2324974136
 10
334.3409599716
 20
243.2974691376
 10
335.5070031191
 20
242.2939978137
 10
336.6549949408
 20
241.2252978632
 10
337.781258073
 20
240.0947926542
 10
338.8821847551
 20
238.9061035357
 10
339.9542483873
 20
237.6630382373
 10
340.9940148264
 20
236.3695786719
 10
341.9981533871
 20
235.0298681805
 10
342.9634475108
 20
233.6481982596
 10
343.8868050696
 20
232.2289948146
 10
344.7652682706
 20
230.7768039819
 10
345.5960231315
 20
229.2962775665
 10
346.3764084941
 20
227.792158141
 10
347.1039245486
 20
226.2692638532
 10
347.7762408419
 20
224.7324729927
 10
348.3912037422
 20
223.186708364
 10
348.9468433379
 20
221.6369215172
 10
349.4413797479
 20
220.0880768867
 10
349.8732288229
 20
218.5451358888
 10
350.2410072203
 20
217.0130410287
 10
350.5435368349
 20
215.4967000682
 10
350.7798485731
 20
214.0009703044
 10
350.9491854572
 20
212.5306430108
 10
351.0510050502
 20
211.0904280889
 10
351.0849811931
 20
209.6849389813
 10
351.0849811931
 20
209.6849389813
  0
LWPOLYLINE
  5
1F3
330
1F
100
AcDbEntity
  8
0
  6
Continuous
 62
     7
370
    15
100
AcDbPolyline
 90
       43
 70
   128
 43
0.0
 10
352.4991947555
 20
210.5013470931
 10
352.4652186126
 20
211.9068362007
 10
352.3633990196
 20
213.3470511226
 10
352.1940621355
 20
214.8173784163
 10
351.9577503972
 20
216.31310818
 10
351.6552207827
 20
217.8294491405
 10
351.2874423853
 20
219.3615440006
 10
350.8555933102
 20
220.9044849985
 10
350.3610569002
 20
222.453329629
 10
349.8054173045
 20
224.0031164759
 10
349.1904544043
 20
225.5488811046
 10
348.518138111
 20
227.085671965
 10
347.7906220564
 20
228.6085662528
 10
347.0102366939
 20
230.1126856783
 10
346.179481833
 20
231.5932120937
 10
345.3010186319
 20
233.0454029264
 10
344.3776610732
 20
234.4646063714
 10
343.4123669495
 20
235.8462762923
 10
342.4082283888
 20
237.1859867838
 10
341.3684619497
 20
238.4794463491
 10
340.2963983175
 20
239.7225116475
 10
339.1954716353
 20
240.911200766
 10
338.0692085032
 20
242.041705975
 10
336.9212166815
 20
243.1104059255
 10
335.755173534
 20
244.1138772494
 10
334.5748142485
 20
245.0489055255
 10
333.3839198718
 20
245.9124955763
 10
332.1863051974
 20
246.7018810625
 10
330.9858065462
 20
247.4145333446
 10
329.7862694773
 20
248.0481695823
 10
328.5915364697
 20
248.6007600477
 10
327.4054346132
 20
249.0705346271
 10
326.2317633498
 20
249.4559884908
 10
325.0742823022
 20
249.7558869139
 10
323.9366992314
 20
249.9692692312
 10
322.8226581587
 20
250.095451915
 10
321.7357276936
 20
250.1340307641
 10
320.6793896021
 20
250.0848821987
 10
319.6570276535
 20
249.9481636566
 10
318.6719167814
 20
249.7243130884
 10
317.7272125929
 20
249.414047555
 10
316.8259412602
 20
249.0183609304
 10
316.2872103304
 20
248.7289346419
  0
LWPOLYLINE
  5
1F4
330
1F
100
AcDbEntity
  8
0
  6
Continuous
 62
     7
370
    15
100
AcDbPolyline
 90
       15
 70
   128
 43
0.0
 10
346.2847723094
 20
196.766002899
 10
347.0102366939
 20
197.2274245901
 10
347.7906220564
 20
197.8305302547
 10
348.518138111
 20
198.5134523852
 10
349.1904544043
 20
199.2740033761
 10
349.8054173045
 20
200.1097469534
 10
350.3610569002
 20
201.0180059784
 10
350.8555933102
 20
201.9958710235
 10
351.2874423853
 20
203.0402096924
 10
351.6552207827
 20
204.1476766533
 10
351.9577503972
 20
205.3147243558
 10
352.1940621355
 20
206.5376143942
 10
352.3633990196
 20
207.812429483
 10
352.4652186126
 20
209.1350860051
 10
352.4991947555
 20
210.5013470931
  0
LWPOLYLINE
  5
1F5
330
1F
100
AcDbEntity
  8
0
  6
Continuous
 62
     7
370
    15
100
AcDbPolyline
 90
       23
 70
   128
 43
0.0
 10
333.7962203931
 20
218.0327119247
 10
333.7614216191
 20
218.7555445491
 10
333.6574789524
 20
219.509131754
 10
333.4857474446
 20
220.2836493778
 10
333.2484658785
 20
221.0690003987
 10
332.9487275823
 20
221.8549465652
 10
332.5904401029
 20
222.6312418671
 10
332.1782742657
 20
223.3877661078
 10
331.7176032825
 20
224.114656837
 10
331.2144327043
 20
224.8024379224
 10
330.675322129
 20
225.4421430856
 10
330.1072996875
 20
226.0254327916
 10
329.5177704208
 20
226.5447029671
 10
328.9144197446
 20
226.9931841311
 10
328.3051132576
 20
227.3650296459
 10
327.6977942018
 20
227.6553919365
 10
327.1003799097
 20
227.8604856864
 10
326.5206585903
 20
227.9776371848
 10
325.9661877976
 20
228.005319183
 10
325.4441959064
 20
227.9431708036
 10
324.9614878791
 20
227.7920022458
 10
324.5243565531
 20
227.5537842231
 10
324.2740999129
 20
227.3596094809
  0
ARC
  5
1F6
330
1F
100
AcDbEntity
  8
0
  6
Continuous
 62
     7
370
    15
100
AcDbCircle
 10
330.2902714757
 20
217.5780039573
 30
0.0
 40
3.535312878275553
100
AcDbArc
 50
294.8057949735
 51
7.3897897119
  0
LINE
  5
1F7
330
1F
100
AcDbEntity
  8
0
  6
Continuous
 62
     7
370
    15
100
AcDbLine
 10
325.0530130771
 20
227.8286878888
 30
0.0
 11
324.9812066941
 21
227.7678135369
 31
0.0
  0
LINE
  5
1F8
330
1F
100
AcDbEntity
  8
0
  6
Continuous
 62
     7
370
    15
100
AcDbLine
 10
332.4805971889
 20
214.7770806011
 30
0.0
 11
332.5692220944
 21
214.8088212608
 31
0.0
  0
LWPOLYLINE
  5
1F9
330
1F
100
AcDbEntity
  8
0
  6
Continuous
 62
     8
370
    15
100
AcDbPolyline
 90
       24
 70
   128
 43
0.0
 10
316.572005925
 20
206.7930373963
 10
316.695737694
 20
207.4013222041
 10
316.7515656202
 20
208.0606637055
 10
316.7387619014
 20
208.7624663757
 10
316.6574934535
 20
209.4975811436
 10
316.508819735
 20
210.256424664
 10
316.2946789353
 20
211.029104251
 10
316.0178627071
 20
211.8055468447
 10
315.6819797733
 20
212.5756303284
 10
315.2914088817
 20
213.3293154862
 10
314.851241721
 20
214.0567768794
 10
314.3672165434
 20
214.7485309363
 10
313.8456433573
 20
215.3955595848
 10
313.2933216668
 20
215.9894278171
 10
312.7174518299
 20
216.5223936525
 10
312.1255411904
 20
216.9875090662
 10
311.5253062089
 20
217.3787105676
 10
310.9245718663
 20
217.6908982467
 10
310.3311696533
 20
217.9200022599
 10
309.7528354754
 20
218.0630358859
 10
309.197108803
 20
218.1181344626
 10
308.6712343831
 20
218.0845796959
 10
308.1820677931
 20
217.9628090233
 10
307.7623041676
 20
217.7698192297
  0
ARC
  5
1FA
330
1F
100
AcDbEntity
  8
0
  6
Continuous
 62
     8
370
    15
100
AcDbCircle
 10
313.5785771771
 20
207.4620573725
 30
0.0
 40
3.067279478196677
100
AcDbArc
 50
302.1700069069
 51
347.4016520504
  0
ENDSEC
  0
SECTION
  2
OBJECTS
  0
DICTIONARY
  5
C
330
0
100
AcDbDictionary
281
     1
  3
ACAD_GROUP
350
D
  3
ACAD_LAYOUT
350
1A
  3
ACAD_MLINESTYLE
350
17
  3
ACAD_PLOTSETTINGS
350
19
  3
ACAD_PLOTSTYLENAME
350
E
  3
ACAD_SCALELIST
350
47
  0
DICTIONARY
  5
D
102
{ACAD_REACTORS
330
C
102
}
330
C
100
AcDbDictionary
281
     1
  0
DICTIONARY
  5
1A
102
{ACAD_REACTORS
330
C
102
}
330
C
100
AcDbDictionary
281
     1
  3
Layout1
350
1E
  3
Layout2
350
26
  3
Model
350
22
  0
DICTIONARY
  5
17
102
{ACAD_REACTORS
330
C
102
}
330
C
100
AcDbDictionary
281
     1
  3
Standard
350
18
  0
DICTIONARY
  5
19
102
{ACAD_REACTORS
330
C
102
}
330
C
100
AcDbDictionary
281
     1
  0
ACDBDICTIONARYWDFLT
  5
E
102
{ACAD_REACTORS
330
C
102
}
330
C
100
AcDbDictionary
281
     1
  3
Normal
350
F
100
AcDbDictionaryWithDefault
340
F
  0
DICTIONARY
  5
47
102
{ACAD_REACTORS
330
C
102
}
330
C
100
AcDbDictionary
281
     1
  3
A0
350
48
  3
A1
350
49
  3
A2
350
4A
  3
A3
350
4B
  3
A4
350
4C
  3
A5
350
4D
  3
A6
350
4E
  3
A7
350
4F
  3
A8
350
50
  3
A9
350
51
  3
B0
350
52
  3
B1
350
53
  3
B2
350
54
  3
B3
350
55
  3
B4
350
56
  3
B5
350
57
  3
B6
350
58
  3
B7
350
59
  3
B8
350
5A
  3
B9
350
5B
  3
C0
350
5C
  3
C1
350
5D
  3
C2
350
5E
  3
C3
350
5F
  3
C4
350
60
  3
C5
350
61
  3
C6
350
62
  3
C7
350
63
  3
C8
350
64
  3
C9
350
65
  3
D0
350
66
  3
D1
350
67
  3
D2
350
68
  0
LAYOUT
  5
1E
102
{ACAD_REACTORS
330
1A
102
}
330
1A
100
AcDbPlotSettings
  1

  2
none_device
  4

  6

 40
0.0
 41
0.0
 42
0.0
 43
0.0
 44
0.0
 45
0.0
 46
0.0
 47
0.0
 48
0.0
 49
0.0
140
0.0
141
0.0
142
1.0
143
1.0
 70
   688
 72
     1
 73
     0
 74
     5
  7

 75
    16
147
1.0
148
0.0
149
0.0
100
AcDbLayout
  1
Layout1
 70
     1
 71
     1
 10
0.0
 20
0.0
 11
420.0
 21
297.0
 12
0.0
 22
0.0
 32
0.0
 14
1.0000000000E+20
 24
1.0000000000E+20
 34
1.0000000000E+20
 15
-1.0000000000E+20
 25
-1.0000000000E+20
 35
-1.0000000000E+20
146
0.0
 13
0.0
 23
0.0
 33
0.0
 16
1.0
 26
0.0
 36
0.0
 17
0.0
 27
1.0
 37
0.0
 76
     0
330
1B
  0
LAYOUT
  5
26
102
{ACAD_REACTORS
330
1A
102
}
330
1A
100
AcDbPlotSettings
  1

  2
none_device
  4

  6

 40
0.0
 41
0.0
 42
0.0
 43
0.0
 44
0.0
 45
0.0
 46
0.0
 47
0.0
 48
0.0
 49
0.0
140
0.0
141
0.0
142
1.0
143
1.0
 70
   688
 72
     1
 73
     0
 74
     5
  7

 75
    16
147
1.0
148
0.0
149
0.0
100
AcDbLayout
  1
Layout2
 70
     1
 71
     2
 10
0.0
 20
0.0
 11
0.0
 21
0.0
 12
0.0
 22
0.0
 32
0.0
 14
0.0
 24
0.0
 34
0.0
 15
0.0
 25
0.0
 35
0.0
146
0.0
 13
0.0
 23
0.0
 33
0.0
 16
1.0
 26
0.0
 36
0.0
 17
0.0
 27
1.0
 37
0.0
 76
     0
330
23
  0
LAYOUT
  5
22
102
{ACAD_REACTORS
330
1A
102
}
330
1A
100
AcDbPlotSettings
  1

  2
none_device
  4
Letter_(8.50_x_11.00_Inches)
  6

 40
6.35
 41
6.35
 42
6.35000508
 43
6.35000508
 44
215.9
 45
279.4
 46
0.0
 47
0.0
 48
0.0
 49
0.0
140
0.0
141
0.0
142
1.0
143
1.0
 70
  1712
 72
     1
 73
     0
 74
     0
  7

 75
     0
147
1.0
148
0.0
149
0.0
100
AcDbLayout
  1
Model
 70
     1
 71
     0
 10
0.0
 20
0.0
 11
431.8
 21
279.4
 12
0.0
 22
0.0
 32
0.0
 14
0.0
 24
0.0
 34
0.0
 15
431.8
 25
279.4
 35
0.0
146
0.0
 13
0.0
 23
0.0
 33
0.0
 16
1.0
 26
0.0
 36
0.0
 17
0.0
 27
1.0
 37
0.0
 76
     0
330
1F
331
29
  0
MLINESTYLE
  5
18
102
{ACAD_REACTORS
330
17
102
}
330
17
100
AcDbMlineStyle
  2
Standard
 70
     0
  3

 62
   256
 51
90.0
 52
90.0
 71
     2
 49
0.5
 62
   256
  6
BYLAYER
 49
-0.5
 62
   256
  6
BYLAYER
  0
ACDBPLACEHOLDER
  5
F
102
{ACAD_REACTORS
330
E
102
}
330
E
  0
SCALE
  5
48
102
{ACAD_REACTORS
330
47
102
}
330
47
100
AcDbScale
 70
     0
300
1:1
140
1.0
141
1.0
290
     1
  0
SCALE
  5
49
102
{ACAD_REACTORS
330
47
102
}
330
47
100
AcDbScale
 70
     0
300
1:2
140
1.0
141
2.0
290
     0
  0
SCALE
  5
4A
102
{ACAD_REACTORS
330
47
102
}
330
47
100
AcDbScale
 70
     0
300
1:4
140
1.0
141
4.0
290
     0
  0
SCALE
  5
4B
102
{ACAD_REACTORS
330
47
102
}
330
47
100
AcDbScale
 70
     0
300
1:5
140
1.0
141
5.0
290
     0
  0
SCALE
  5
4C
102
{ACAD_REACTORS
330
47
102
}
330
47
100
AcDbScale
 70
     0
300
1:8
140
1.0
141
8.0
290
     0
  0
SCALE
  5
4D
102
{ACAD_REACTORS
330
47
102
}
330
47
100
AcDbScale
 70
     0
300
1:10
140
1.0
141
10.0
290
     0
  0
SCALE
  5
4E
102
{ACAD_REACTORS
330
47
102
}
330
47
100
AcDbScale
 70
     0
300
1:16
140
1.0
141
16.0
290
     0
  0
SCALE
  5
4F
102
{ACAD_REACTORS
330
47
102
}
330
47
100
AcDbScale
 70
     0
300
1:20
140
1.0
141
20.0
290
     0
  0
SCALE
  5
50
102
{ACAD_REACTORS
330
47
102
}
330
47
100
AcDbScale
 70
     0
300
1:30
140
1.0
141
30.0
290
     0
  0
SCALE
  5
51
102
{ACAD_REACTORS
330
47
102
}
330
47
100
AcDbScale
 70
     0
300
1:40
140
1.0
141
40.0
290
     0
  0
SCALE
  5
52
102
{ACAD_REACTORS
330
47
102
}
330
47
100
AcDbScale
 70
     0
300
1:50
140
1.0
141
50.0
290
     0
  0
SCALE
  5
53
102
{ACAD_REACTORS
330
47
102
}
330
47
100
AcDbScale
 70
     0
300
1:100
140
1.0
141
100.0
290
     0
  0
SCALE
  5
54
102
{ACAD_REACTORS
330
47
102
}
330
47
100
AcDbScale
 70
     0
300
2:1
140
2.0
141
1.0
290
     0
  0
SCALE
  5
55
102
{ACAD_REACTORS
330
47
102
}
330
47
100
AcDbScale
 70
     0
300
4:1
140
4.0
141
1.0
290
     0
  0
SCALE
  5
56
102
{ACAD_REACTORS
330
47
102
}
330
47
100
AcDbScale
 70
     0
300
8:1
140
8.0
141
1.0
290
     0
  0
SCALE
  5
57
102
{ACAD_REACTORS
330
47
102
}
330
47
100
AcDbScale
 70
     0
300
10:1
140
10.0
141
1.0
290
     0
  0
SCALE
  5
58
102
{ACAD_REACTORS
330
47
102
}
330
47
100
AcDbScale
 70
     0
300
100:1
140
100.0
141
1.0
290
     0
  0
SCALE
  5
59
102
{ACAD_REACTORS
330
47
102
}
330
47
100
AcDbScale
 70
     0
300
1/128" = 1'-0"
140
0.0078125
141
12.0
290
     0
  0
SCALE
  5
5A
102
{ACAD_REACTORS
330
47
102
}
330
47
100
AcDbScale
 70
     0
300
1/64" = 1'-0"
140
0.015625
141
12.0
290
     0
  0
SCALE
  5
5B
102
{ACAD_REACTORS
330
47
102
}
330
47
100
AcDbScale
 70
     0
300
1/32" = 1'-0"
140
0.03125
141
12.0
290
     0
  0
SCALE
  5
5C
102
{ACAD_REACTORS
330
47
102
}
330
47
100
AcDbScale
 70
     0
300
1/16" = 1'-0"
140
0.0625
141
12.0
290
     0
  0
SCALE
  5
5D
102
{ACAD_REACTORS
330
47
102
}
330
47
100
AcDbScale
 70
     0
300
3/32" = 1'-0"
140
0.09375
141
12.0
290
     0
  0
SCALE
  5
5E
102
{ACAD_REACTORS
330
47
102
}
330
47
100
AcDbScale
 70
     0
300
1/8" = 1'-0"
140
0.125
141
12.0
290
     0
  0
SCALE
  5
5F
102
{ACAD_REACTORS
330
47
102
}
330
47
100
AcDbScale
 70
     0
300
3/16" = 1'-0"
140
0.1875
141
12.0
290
     0
  0
SCALE
  5
60
102
{ACAD_REACTORS
330
47
102
}
330
47
100
AcDbScale
 70
     0
300
1/4" = 1'-0"
140
0.25
141
12.0
290
     0
  0
SCALE
  5
61
102
{ACAD_REACTORS
330
47
102
}
330
47
100
AcDbScale
 70
     0
300
3/8" = 1'-0"
140
0.375
141
12.0
290
     0
  0
SCALE
  5
62
102
{ACAD_REACTORS
330
47
102
}
330
47
100
AcDbScale
 70
     0
300
1/2" = 1'-0"
140
0.5
141
12.0
290
     0
  0
SCALE
  5
63
102
{ACAD_REACTORS
330
47
102
}
330
47
100
AcDbScale
 70
     0
300
3/4" = 1'-0"
140
0.75
141
12.0
290
     0
  0
SCALE
  5
64
102
{ACAD_REACTORS
330
47
102
}
330
47
100
AcDbScale
 70
     0
300
1" = 1'-0"
140
1.0
141
12.0
290
     0
  0
SCALE
  5
65
102
{ACAD_REACTORS
330
47
102
}
330
47
100
AcDbScale
 70
     0
300
1-1/2" = 1'-0"
140
1.5
141
12.0
290
     0
  0
SCALE
  5
66
102
{ACAD_REACTORS
330
47
102
}
330
47
100
AcDbScale
 70
     0
300
3" = 1'-0"
140
3.0
141
12.0
290
     0
  0
SCALE
  5
67
102
{ACAD_REACTORS
330
47
102
}
330
47
100
AcDbScale
 70
     0
300
6" = 1'-0"
140
6.0
141
12.0
290
     0
  0
SCALE
  5
68
102
{ACAD_REACTORS
330
47
102
}
330
47
100
AcDbScale
 70
     0
300
1'-0" = 1'-0"
140
12.0
141
12.0
290
     0
  0
ENDSEC
  0
EOF
